  0
SECTION
  2
HEADER
  9
$EXTMIN
 10
-2.027000
 20
-0.439000
  9
$EXTMAX
 10
1.855000
 20
3.265000
  9
$LIMMIN
 10
-2.027000
 20
-0.439000
  9
$LIMMAX
 10
1.855000
 20
3.265000
  9
$FILLMODE
 70
  1
  0
ENDSEC
  0
SECTION
  2
TABLES
  0
TABLE
  2
LTYPE
 70
  1
  0
LTYPE
  2
CONTINUOUS
 70
 64
  3
Solid line
 72
 65
 73
  0
 40
0.0
  0
ENDTAB
  0
TABLE
  2
LAYER
 70
 1
  0
LAYER
  2
0
 70
  0
 62
7
  6
CONTINUOUS
  0
LAYER
  2
gg1
 70
  0
 62
1
  6
CONTINUOUS
  0
ENDTAB
  0
TABLE
  2
STYLE
 70
  1
  0
STYLE
  2
STANDARD
 70
  0
 40
0.0
 41
1.0
 50
0.0
 71
  0
 42
0.2
  3
txt
  4

  0
ENDTAB
  0
ENDSEC
  0
SECTION
  2
BLOCKS
  0
BLOCK
  8
0
  2
D10
 70
64
 10
0.0
 20
0.0
  3
D10
  0
CIRCLE
  8
0
 10
0.000000
 20
0.000000
 40
0.002500
 0
ENDBLK
  8
0
  0
BLOCK
  8
0
  2
D11
 70
64
 10
0.0
 20
0.0
  3
D11
  0
CIRCLE
  8
0
 10
0.000000
 20
0.000000
 40
0.005000
 0
ENDBLK
  8
0
  0
BLOCK
  8
0
  2
D12
 70
64
 10
0.0
 20
0.0
  3
D12
  0
CIRCLE
  8
0
 10
0.000000
 20
0.000000
 40
0.003000
 0
ENDBLK
  8
0
  0
ENDSEC
  0
SECTION
  2
ENTITIES
  0
POLYLINE
  8
gg1
 62
1
 40
0.000000
 41
0.000000
 66
  1
  0
VERTEX
  8
gg1
 10
-1.300000
 20
1.240000
  0
VERTEX
  8
gg1
 10
-1.300000
 20
1.240000
  0
VERTEX
  8
gg1
 10
-1.300000
 20
1.240000
 42
0.414214
  0
VERTEX
  8
gg1
 10
-1.550000
 20
1.490000
  0
VERTEX
  8
gg1
 10
-1.550000
 20
1.490000
  0
SEQEND
  8
gg1
  0
POLYLINE
  8
gg1
 62
1
 40
0.000000
 41
0.000000
 66
  1
  0
VERTEX
  8
gg1
 10
-1.550000
 20
1.940000
  0
VERTEX
  8
gg1
 10
-1.550000
 20
1.940000
  0
VERTEX
  8
gg1
 10
-1.550000
 20
1.940000
 42
0.414214
  0
VERTEX
  8
gg1
 10
-1.300000
 20
2.190000
  0
VERTEX
  8
gg1
 10
-1.300000
 20
2.190000
  0
SEQEND
  8
gg1
  0
POLYLINE
  8
gg1
 62
1
 40
0.000000
 41
0.000000
 66
  1
  0
VERTEX
  8
gg1
 10
-1.235000
 20
0.873000
  0
VERTEX
  8
gg1
 10
-1.235000
 20
0.873000
  0
VERTEX
  8
gg1
 10
-1.235000
 20
0.873000
 42
0.414214
  0
VERTEX
  8
gg1
 10
-1.267000
 20
0.905000
  0
VERTEX
  8
gg1
 10
-1.267000
 20
0.905000
  0
SEQEND
  8
gg1
  0
POLYLINE
  8
gg1
 62
1
 40
0.000000
 41
0.000000
 66
  1
  0
VERTEX
  8
gg1
 10
-1.267000
 20
0.630000
  0
VERTEX
  8
gg1
 10
-1.267000
 20
0.630000
  0
VERTEX
  8
gg1
 10
-1.267000
 20
0.630000
 42
0.414214
  0
VERTEX
  8
gg1
 10
-1.235000
 20
0.662000
  0
VERTEX
  8
gg1
 10
-1.235000
 20
0.662000
  0
SEQEND
  8
gg1
  0
POLYLINE
  8
gg1
 62
1
 40
0.000000
 41
0.000000
 66
  1
  0
VERTEX
  8
gg1
 10
1.235000
 20
0.662000
  0
VERTEX
  8
gg1
 10
1.235000
 20
0.662000
  0
VERTEX
  8
gg1
 10
1.235000
 20
0.662000
 42
0.414214
  0
VERTEX
  8
gg1
 10
1.267000
 20
0.630000
  0
VERTEX
  8
gg1
 10
1.267000
 20
0.630000
  0
SEQEND
  8
gg1
  0
POLYLINE
  8
gg1
 62
1
 40
0.000000
 41
0.000000
 66
  1
  0
VERTEX
  8
gg1
 10
1.267000
 20
0.905000
  0
VERTEX
  8
gg1
 10
1.267000
 20
0.905000
  0
VERTEX
  8
gg1
 10
1.267000
 20
0.905000
 42
0.414214
  0
VERTEX
  8
gg1
 10
1.235000
 20
0.873000
  0
VERTEX
  8
gg1
 10
1.235000
 20
0.873000
  0
SEQEND
  8
gg1
  0
POLYLINE
  8
gg1
 62
1
 40
0.000000
 41
0.000000
 66
  1
  0
VERTEX
  8
gg1
 10
-1.300000
 20
2.333000
  0
VERTEX
  8
gg1
 10
-1.300000
 20
2.333000
  0
VERTEX
  8
gg1
 10
-1.300000
 20
2.333000
 42
0.414214
  0
VERTEX
  8
gg1
 10
-1.332000
 20
2.365000
  0
VERTEX
  8
gg1
 10
-1.332000
 20
2.365000
  0
SEQEND
  8
gg1
  0
POLYLINE
  8
gg1
 62
1
 40
0.000000
 41
0.000000
 66
  1
  0
VERTEX
  8
gg1
 10
-1.332000
 20
2.950000
  0
VERTEX
  8
gg1
 10
-1.332000
 20
2.950000
  0
VERTEX
  8
gg1
 10
-1.332000
 20
2.950000
 42
0.414214
  0
VERTEX
  8
gg1
 10
-1.300000
 20
2.982000
  0
VERTEX
  8
gg1
 10
-1.300000
 20
2.982000
  0
SEQEND
  8
gg1
  0
POLYLINE
  8
gg1
 62
1
 40
0.000000
 41
0.000000
 66
  1
  0
VERTEX
  8
gg1
 10
1.300000
 20
2.982000
  0
VERTEX
  8
gg1
 10
1.300000
 20
2.982000
  0
VERTEX
  8
gg1
 10
1.300000
 20
2.982000
 42
0.414214
  0
VERTEX
  8
gg1
 10
1.332000
 20
2.950000
  0
VERTEX
  8
gg1
 10
1.332000
 20
2.950000
  0
SEQEND
  8
gg1
  0
POLYLINE
  8
gg1
 62
1
 40
0.000000
 41
0.000000
 66
  1
  0
VERTEX
  8
gg1
 10
1.332000
 20
2.365000
  0
VERTEX
  8
gg1
 10
1.332000
 20
2.365000
  0
VERTEX
  8
gg1
 10
1.332000
 20
2.365000
 42
0.414214
  0
VERTEX
  8
gg1
 10
1.300000
 20
2.333000
  0
VERTEX
  8
gg1
 10
1.300000
 20
2.333000
  0
SEQEND
  8
gg1
  0
POLYLINE
  8
gg1
 62
1
 40
0.000000
 41
0.000000
 66
  1
  0
VERTEX
  8
gg1
 10
1.300000
 20
2.190000
  0
VERTEX
  8
gg1
 10
1.300000
 20
2.190000
  0
VERTEX
  8
gg1
 10
1.300000
 20
2.190000
 42
0.414214
  0
VERTEX
  8
gg1
 10
1.550000
 20
1.940000
  0
VERTEX
  8
gg1
 10
1.550000
 20
1.940000
  0
SEQEND
  8
gg1
  0
POLYLINE
  8
gg1
 62
1
 40
0.000000
 41
0.000000
 66
  1
  0
VERTEX
  8
gg1
 10
1.550000
 20
1.490000
  0
VERTEX
  8
gg1
 10
1.550000
 20
1.490000
  0
VERTEX
  8
gg1
 10
1.550000
 20
1.490000
 42
0.414214
  0
VERTEX
  8
gg1
 10
1.300000
 20
1.240000
  0
VERTEX
  8
gg1
 10
1.300000
 20
1.240000
  0
SEQEND
  8
gg1
  0
POLYLINE
  8
gg1
 62
1
 40
0.000000
 41
0.000000
 66
  1
  0
VERTEX
  8
gg1
 10
1.850000
 20
1.908000
  0
VERTEX
  8
gg1
 10
1.850000
 20
1.908000
  0
VERTEX
  8
gg1
 10
1.850000
 20
1.908000
 42
0.414214
  0
VERTEX
  8
gg1
 10
1.818000
 20
1.940000
  0
VERTEX
  8
gg1
 10
1.818000
 20
1.940000
  0
SEQEND
  8
gg1
  0
POLYLINE
  8
gg1
 62
1
 40
0.000000
 41
0.000000
 66
  1
  0
VERTEX
  8
gg1
 10
1.818000
 20
1.490000
  0
VERTEX
  8
gg1
 10
1.818000
 20
1.490000
  0
VERTEX
  8
gg1
 10
1.818000
 20
1.490000
 42
0.414214
  0
VERTEX
  8
gg1
 10
1.850000
 20
1.522000
  0
VERTEX
  8
gg1
 10
1.850000
 20
1.522000
  0
SEQEND
  8
gg1
  0
POLYLINE
  8
gg1
 62
1
 40
0.000000
 41
0.000000
 66
  1
  0
VERTEX
  8
gg1
 10
-1.850000
 20
1.522000
  0
VERTEX
  8
gg1
 10
-1.850000
 20
1.522000
  0
VERTEX
  8
gg1
 10
-1.850000
 20
1.522000
 42
0.414214
  0
VERTEX
  8
gg1
 10
-1.818000
 20
1.490000
  0
VERTEX
  8
gg1
 10
-1.818000
 20
1.490000
  0
SEQEND
  8
gg1
  0
POLYLINE
  8
gg1
 62
1
 40
0.000000
 41
0.000000
 66
  1
  0
VERTEX
  8
gg1
 10
-1.818000
 20
1.940000
  0
VERTEX
  8
gg1
 10
-1.818000
 20
1.940000
  0
VERTEX
  8
gg1
 10
-1.818000
 20
1.940000
 42
0.414214
  0
VERTEX
  8
gg1
 10
-1.850000
 20
1.908000
  0
VERTEX
  8
gg1
 10
-1.850000
 20
1.908000
  0
SEQEND
  8
gg1
  0
POLYLINE
  8
gg1
 62
1
 40
0.000000
 41
0.000000
 66
  1
  0
VERTEX
  8
gg1
 10
1.268000
 20
0.000000
  0
VERTEX
  8
gg1
 10
1.268000
 20
0.000000
  0
VERTEX
  8
gg1
 10
1.268000
 20
0.000000
 42
0.414214
  0
VERTEX
  8
gg1
 10
1.300000
 20
0.032000
  0
VERTEX
  8
gg1
 10
1.300000
 20
0.032000
  0
SEQEND
  8
gg1
  0
POLYLINE
  8
gg1
 62
1
 40
0.000000
 41
0.000000
 66
  1
  0
VERTEX
  8
gg1
 10
1.300000
 20
3.228000
  0
VERTEX
  8
gg1
 10
1.300000
 20
3.228000
  0
VERTEX
  8
gg1
 10
1.300000
 20
3.228000
 42
0.414214
  0
VERTEX
  8
gg1
 10
1.268000
 20
3.260000
  0
VERTEX
  8
gg1
 10
1.268000
 20
3.260000
  0
SEQEND
  8
gg1
  0
POLYLINE
  8
gg1
 62
1
 40
0.000000
 41
0.000000
 66
  1
  0
VERTEX
  8
gg1
 10
-1.268000
 20
3.260000
  0
VERTEX
  8
gg1
 10
-1.268000
 20
3.260000
  0
VERTEX
  8
gg1
 10
-1.268000
 20
3.260000
 42
0.414214
  0
VERTEX
  8
gg1
 10
-1.300000
 20
3.228000
  0
VERTEX
  8
gg1
 10
-1.300000
 20
3.228000
  0
SEQEND
  8
gg1
  0
POLYLINE
  8
gg1
 62
1
 40
0.000000
 41
0.000000
 66
  1
  0
VERTEX
  8
gg1
 10
-1.300000
 20
0.032000
  0
VERTEX
  8
gg1
 10
-1.300000
 20
0.032000
  0
VERTEX
  8
gg1
 10
-1.300000
 20
0.032000
 42
0.414214
  0
VERTEX
  8
gg1
 10
-1.268000
 20
0.000000
  0
VERTEX
  8
gg1
 10
-1.268000
 20
0.000000
  0
SEQEND
  8
gg1
  0
POLYLINE
  8
gg1
 62
1
 40
0.000000
 41
0.000000
 66
  1
  0
VERTEX
  8
gg1
 10
-1.300000
 20
0.032000
  0
VERTEX
  8
gg1
 10
-1.300000
 20
0.630000
  0
SEQEND
  8
gg1
  0
POLYLINE
  8
gg1
 62
1
 40
0.000000
 41
0.000000
 66
  1
  0
VERTEX
  8
gg1
 10
-0.160000
 20
0.000000
  0
VERTEX
  8
gg1
 10
0.160000
 20
0.000000
  0
SEQEND
  8
gg1
  0
POLYLINE
  8
gg1
 62
1
 40
0.000000
 41
0.000000
 66
  1
  0
VERTEX
  8
gg1
 10
-0.210000
 20
0.050000
  0
VERTEX
  8
gg1
 10
-0.160000
 20
0.000000
  0
SEQEND
  8
gg1
  0
POLYLINE
  8
gg1
 62
1
 40
0.000000
 41
0.000000
 66
  1
  0
VERTEX
  8
gg1
 10
0.160000
 20
0.000000
  0
VERTEX
  8
gg1
 10
0.230000
 20
0.070000
  0
SEQEND
  8
gg1
  0
POLYLINE
  8
gg1
 62
1
 40
0.000000
 41
0.000000
 66
  1
  0
VERTEX
  8
gg1
 10
-0.720000
 20
0.000000
  0
VERTEX
  8
gg1
 10
-0.670000
 20
0.050000
  0
VERTEX
  8
gg1
 10
-0.210000
 20
0.050000
  0
SEQEND
  8
gg1
  0
POLYLINE
  8
gg1
 62
1
 40
0.000000
 41
0.000000
 66
  1
  0
VERTEX
  8
gg1
 10
1.520000
 20
2.365000
  0
VERTEX
  8
gg1
 10
1.520000
 20
2.950000
  0
SEQEND
  8
gg1
  0
POLYLINE
  8
gg1
 62
1
 40
0.000000
 41
0.000000
 66
  1
  0
VERTEX
  8
gg1
 10
-1.520000
 20
2.365000
  0
VERTEX
  8
gg1
 10
-1.520000
 20
2.950000
  0
SEQEND
  8
gg1
  0
POLYLINE
  8
gg1
 62
1
 40
0.000000
 41
0.000000
 66
  1
  0
VERTEX
  8
gg1
 10
-1.850000
 20
1.522000
  0
VERTEX
  8
gg1
 10
-1.850000
 20
1.908000
  0
SEQEND
  8
gg1
  0
POLYLINE
  8
gg1
 62
1
 40
0.000000
 41
0.000000
 66
  1
  0
VERTEX
  8
gg1
 10
-1.818000
 20
1.940000
  0
VERTEX
  8
gg1
 10
-1.550000
 20
1.940000
  0
SEQEND
  8
gg1
  0
POLYLINE
  8
gg1
 62
1
 40
0.000000
 41
0.000000
 66
  1
  0
VERTEX
  8
gg1
 10
-1.818000
 20
1.490000
  0
VERTEX
  8
gg1
 10
-1.550000
 20
1.490000
  0
SEQEND
  8
gg1
  0
POLYLINE
  8
gg1
 62
1
 40
0.000000
 41
0.000000
 66
  1
  0
VERTEX
  8
gg1
 10
-1.300000
 20
0.905000
  0
VERTEX
  8
gg1
 10
-1.300000
 20
1.240000
  0
SEQEND
  8
gg1
  0
POLYLINE
  8
gg1
 62
1
 40
0.000000
 41
0.000000
 66
  1
  0
VERTEX
  8
gg1
 10
1.300000
 20
0.905000
  0
VERTEX
  8
gg1
 10
1.300000
 20
1.240000
  0
SEQEND
  8
gg1
  0
POLYLINE
  8
gg1
 62
1
 40
0.000000
 41
0.000000
 66
  1
  0
VERTEX
  8
gg1
 10
-1.300000
 20
0.905000
  0
VERTEX
  8
gg1
 10
-1.267000
 20
0.905000
  0
SEQEND
  8
gg1
  0
POLYLINE
  8
gg1
 62
1
 40
0.000000
 41
0.000000
 66
  1
  0
VERTEX
  8
gg1
 10
-1.300000
 20
0.630000
  0
VERTEX
  8
gg1
 10
-1.267000
 20
0.630000
  0
SEQEND
  8
gg1
  0
POLYLINE
  8
gg1
 62
1
 40
0.000000
 41
0.000000
 66
  1
  0
VERTEX
  8
gg1
 10
-1.235000
 20
0.662000
  0
VERTEX
  8
gg1
 10
-1.235000
 20
0.873000
  0
SEQEND
  8
gg1
  0
POLYLINE
  8
gg1
 62
1
 40
0.000000
 41
0.000000
 66
  1
  0
VERTEX
  8
gg1
 10
1.235000
 20
0.662000
  0
VERTEX
  8
gg1
 10
1.235000
 20
0.873000
  0
SEQEND
  8
gg1
  0
POLYLINE
  8
gg1
 62
1
 40
0.000000
 41
0.000000
 66
  1
  0
VERTEX
  8
gg1
 10
1.267000
 20
0.630000
  0
VERTEX
  8
gg1
 10
1.300000
 20
0.630000
  0
SEQEND
  8
gg1
  0
POLYLINE
  8
gg1
 62
1
 40
0.000000
 41
0.000000
 66
  1
  0
VERTEX
  8
gg1
 10
1.267000
 20
0.905000
  0
VERTEX
  8
gg1
 10
1.300000
 20
0.905000
  0
SEQEND
  8
gg1
  0
POLYLINE
  8
gg1
 62
1
 40
0.000000
 41
0.000000
 66
  1
  0
VERTEX
  8
gg1
 10
-1.520000
 20
2.365000
  0
VERTEX
  8
gg1
 10
-1.332000
 20
2.365000
  0
SEQEND
  8
gg1
  0
POLYLINE
  8
gg1
 62
1
 40
0.000000
 41
0.000000
 66
  1
  0
VERTEX
  8
gg1
 10
-1.300000
 20
2.190000
  0
VERTEX
  8
gg1
 10
-1.300000
 20
2.333000
  0
SEQEND
  8
gg1
  0
POLYLINE
  8
gg1
 62
1
 40
0.000000
 41
0.000000
 66
  1
  0
VERTEX
  8
gg1
 10
-1.520000
 20
2.950000
  0
VERTEX
  8
gg1
 10
-1.332000
 20
2.950000
  0
SEQEND
  8
gg1
  0
POLYLINE
  8
gg1
 62
1
 40
0.000000
 41
0.000000
 66
  1
  0
VERTEX
  8
gg1
 10
1.332000
 20
2.950000
  0
VERTEX
  8
gg1
 10
1.520000
 20
2.950000
  0
SEQEND
  8
gg1
  0
POLYLINE
  8
gg1
 62
1
 40
0.000000
 41
0.000000
 66
  1
  0
VERTEX
  8
gg1
 10
1.332000
 20
2.365000
  0
VERTEX
  8
gg1
 10
1.520000
 20
2.365000
  0
SEQEND
  8
gg1
  0
POLYLINE
  8
gg1
 62
1
 40
0.000000
 41
0.000000
 66
  1
  0
VERTEX
  8
gg1
 10
1.300000
 20
2.190000
  0
VERTEX
  8
gg1
 10
1.300000
 20
2.333000
  0
SEQEND
  8
gg1
  0
POLYLINE
  8
gg1
 62
1
 40
0.000000
 41
0.000000
 66
  1
  0
VERTEX
  8
gg1
 10
0.230000
 20
0.070000
  0
VERTEX
  8
gg1
 10
0.590000
 20
0.070000
  0
VERTEX
  8
gg1
 10
0.660000
 20
0.000000
  0
SEQEND
  8
gg1
  0
POLYLINE
  8
gg1
 62
1
 40
0.000000
 41
0.000000
 66
  1
  0
VERTEX
  8
gg1
 10
1.550000
 20
1.490000
  0
VERTEX
  8
gg1
 10
1.818000
 20
1.490000
  0
SEQEND
  8
gg1
  0
POLYLINE
  8
gg1
 62
1
 40
0.000000
 41
0.000000
 66
  1
  0
VERTEX
  8
gg1
 10
1.850000
 20
1.522000
  0
VERTEX
  8
gg1
 10
1.850000
 20
1.908000
  0
SEQEND
  8
gg1
  0
POLYLINE
  8
gg1
 62
1
 40
0.000000
 41
0.000000
 66
  1
  0
VERTEX
  8
gg1
 10
1.550000
 20
1.940000
  0
VERTEX
  8
gg1
 10
1.818000
 20
1.940000
  0
SEQEND
  8
gg1
  0
POLYLINE
  8
gg1
 62
1
 40
0.000000
 41
0.000000
 66
  1
  0
VERTEX
  8
gg1
 10
1.300000
 20
0.032000
  0
VERTEX
  8
gg1
 10
1.300000
 20
0.630000
  0
SEQEND
  8
gg1
  0
POLYLINE
  8
gg1
 62
1
 40
0.000000
 41
0.000000
 66
  1
  0
VERTEX
  8
gg1
 10
0.660000
 20
0.000000
  0
VERTEX
  8
gg1
 10
1.268000
 20
0.000000
  0
SEQEND
  8
gg1
  0
POLYLINE
  8
gg1
 62
1
 40
0.000000
 41
0.000000
 66
  1
  0
VERTEX
  8
gg1
 10
1.300000
 20
2.982000
  0
VERTEX
  8
gg1
 10
1.300000
 20
3.228000
  0
SEQEND
  8
gg1
  0
POLYLINE
  8
gg1
 62
1
 40
0.000000
 41
0.000000
 66
  1
  0
VERTEX
  8
gg1
 10
-1.268000
 20
0.000000
  0
VERTEX
  8
gg1
 10
-0.720000
 20
0.000000
  0
SEQEND
  8
gg1
  0
POLYLINE
  8
gg1
 62
1
 40
0.000000
 41
0.000000
 66
  1
  0
VERTEX
  8
gg1
 10
-1.268000
 20
3.260000
  0
VERTEX
  8
gg1
 10
1.268000
 20
3.260000
  0
SEQEND
  8
gg1
  0
POLYLINE
  8
gg1
 62
1
 40
0.000000
 41
0.000000
 66
  1
  0
VERTEX
  8
gg1
 10
-1.300000
 20
2.982000
  0
VERTEX
  8
gg1
 10
-1.300000
 20
3.228000
  0
SEQEND
  8
gg1
  0
POLYLINE
  8
gg1
 62
1
 40
0.000000
 41
0.000000
 66
  1
  0
VERTEX
  8
gg1
 10
1.360000
 20
1.510000
  0
VERTEX
  8
gg1
 10
1.400000
 20
1.510000
  0
SEQEND
  8
gg1
  0
POLYLINE
  8
gg1
 62
1
 40
0.000000
 41
0.000000
 66
  1
  0
VERTEX
  8
gg1
 10
1.380000
 20
1.490000
  0
VERTEX
  8
gg1
 10
1.380000
 20
1.530000
  0
SEQEND
  8
gg1
  0
POLYLINE
  8
gg1
 62
1
 40
0.000000
 41
0.000000
 66
  1
  0
VERTEX
  8
gg1
 10
-1.400000
 20
1.515000
  0
VERTEX
  8
gg1
 10
-1.360000
 20
1.515000
  0
SEQEND
  8
gg1
  0
POLYLINE
  8
gg1
 62
1
 40
0.000000
 41
0.000000
 66
  1
  0
VERTEX
  8
gg1
 10
-1.380000
 20
1.495000
  0
VERTEX
  8
gg1
 10
-1.380000
 20
1.535000
  0
SEQEND
  8
gg1
  0
POLYLINE
  8
gg1
 62
1
 40
0.000000
 41
0.000000
 66
  1
  0
VERTEX
  8
gg1
 10
1.610000
 20
1.665000
  0
VERTEX
  8
gg1
 10
1.650000
 20
1.665000
  0
SEQEND
  8
gg1
  0
POLYLINE
  8
gg1
 62
1
 40
0.000000
 41
0.000000
 66
  1
  0
VERTEX
  8
gg1
 10
1.630000
 20
1.645000
  0
VERTEX
  8
gg1
 10
1.630000
 20
1.685000
  0
SEQEND
  8
gg1
  0
POLYLINE
  8
gg1
 62
1
 40
0.000000
 41
0.000000
 66
  1
  0
VERTEX
  8
gg1
 10
1.610000
 20
1.765000
  0
VERTEX
  8
gg1
 10
1.650000
 20
1.765000
  0
SEQEND
  8
gg1
  0
POLYLINE
  8
gg1
 62
1
 40
0.000000
 41
0.000000
 66
  1
  0
VERTEX
  8
gg1
 10
1.630000
 20
1.745000
  0
VERTEX
  8
gg1
 10
1.630000
 20
1.785000
  0
SEQEND
  8
gg1
  0
POLYLINE
  8
gg1
 62
1
 40
0.000000
 41
0.000000
 66
  1
  0
VERTEX
  8
gg1
 10
1.510000
 20
1.665000
  0
VERTEX
  8
gg1
 10
1.550000
 20
1.665000
  0
SEQEND
  8
gg1
  0
POLYLINE
  8
gg1
 62
1
 40
0.000000
 41
0.000000
 66
  1
  0
VERTEX
  8
gg1
 10
1.530000
 20
1.645000
  0
VERTEX
  8
gg1
 10
1.530000
 20
1.685000
  0
SEQEND
  8
gg1
  0
POLYLINE
  8
gg1
 62
1
 40
0.000000
 41
0.000000
 66
  1
  0
VERTEX
  8
gg1
 10
1.510000
 20
1.765000
  0
VERTEX
  8
gg1
 10
1.550000
 20
1.765000
  0
SEQEND
  8
gg1
  0
POLYLINE
  8
gg1
 62
1
 40
0.000000
 41
0.000000
 66
  1
  0
VERTEX
  8
gg1
 10
1.530000
 20
1.745000
  0
VERTEX
  8
gg1
 10
1.530000
 20
1.785000
  0
SEQEND
  8
gg1
  0
POLYLINE
  8
gg1
 62
1
 40
0.000000
 41
0.000000
 66
  1
  0
VERTEX
  8
gg1
 10
-1.650000
 20
1.765000
  0
VERTEX
  8
gg1
 10
-1.610000
 20
1.765000
  0
SEQEND
  8
gg1
  0
POLYLINE
  8
gg1
 62
1
 40
0.000000
 41
0.000000
 66
  1
  0
VERTEX
  8
gg1
 10
-1.630000
 20
1.745000
  0
VERTEX
  8
gg1
 10
-1.630000
 20
1.785000
  0
SEQEND
  8
gg1
  0
POLYLINE
  8
gg1
 62
1
 40
0.000000
 41
0.000000
 66
  1
  0
VERTEX
  8
gg1
 10
-1.650000
 20
1.665000
  0
VERTEX
  8
gg1
 10
-1.610000
 20
1.665000
  0
SEQEND
  8
gg1
  0
POLYLINE
  8
gg1
 62
1
 40
0.000000
 41
0.000000
 66
  1
  0
VERTEX
  8
gg1
 10
-1.630000
 20
1.645000
  0
VERTEX
  8
gg1
 10
-1.630000
 20
1.685000
  0
SEQEND
  8
gg1
  0
POLYLINE
  8
gg1
 62
1
 40
0.000000
 41
0.000000
 66
  1
  0
VERTEX
  8
gg1
 10
-1.550000
 20
1.765000
  0
VERTEX
  8
gg1
 10
-1.510000
 20
1.765000
  0
SEQEND
  8
gg1
  0
POLYLINE
  8
gg1
 62
1
 40
0.000000
 41
0.000000
 66
  1
  0
VERTEX
  8
gg1
 10
-1.530000
 20
1.745000
  0
VERTEX
  8
gg1
 10
-1.530000
 20
1.785000
  0
SEQEND
  8
gg1
  0
POLYLINE
  8
gg1
 62
1
 40
0.000000
 41
0.000000
 66
  1
  0
VERTEX
  8
gg1
 10
-1.550000
 20
1.665000
  0
VERTEX
  8
gg1
 10
-1.510000
 20
1.665000
  0
SEQEND
  8
gg1
  0
POLYLINE
  8
gg1
 62
1
 40
0.000000
 41
0.000000
 66
  1
  0
VERTEX
  8
gg1
 10
-1.530000
 20
1.645000
  0
VERTEX
  8
gg1
 10
-1.530000
 20
1.685000
  0
SEQEND
  8
gg1
  0
POLYLINE
  8
gg1
 62
1
 40
0.000000
 41
0.000000
 66
  1
  0
VERTEX
  8
gg1
 10
1.230000
 20
3.110000
  0
VERTEX
  8
gg1
 10
1.270000
 20
3.110000
  0
SEQEND
  8
gg1
  0
POLYLINE
  8
gg1
 62
1
 40
0.000000
 41
0.000000
 66
  1
  0
VERTEX
  8
gg1
 10
1.250000
 20
3.090000
  0
VERTEX
  8
gg1
 10
1.250000
 20
3.130000
  0
SEQEND
  8
gg1
  0
POLYLINE
  8
gg1
 62
1
 40
0.000000
 41
0.000000
 66
  1
  0
VERTEX
  8
gg1
 10
1.230000
 20
3.210000
  0
VERTEX
  8
gg1
 10
1.270000
 20
3.210000
  0
SEQEND
  8
gg1
  0
POLYLINE
  8
gg1
 62
1
 40
0.000000
 41
0.000000
 66
  1
  0
VERTEX
  8
gg1
 10
1.250000
 20
3.190000
  0
VERTEX
  8
gg1
 10
1.250000
 20
3.230000
  0
SEQEND
  8
gg1
  0
POLYLINE
  8
gg1
 62
1
 40
0.000000
 41
0.000000
 66
  1
  0
VERTEX
  8
gg1
 10
-1.270000
 20
3.110000
  0
VERTEX
  8
gg1
 10
-1.230000
 20
3.110000
  0
SEQEND
  8
gg1
  0
POLYLINE
  8
gg1
 62
1
 40
0.000000
 41
0.000000
 66
  1
  0
VERTEX
  8
gg1
 10
-1.250000
 20
3.090000
  0
VERTEX
  8
gg1
 10
-1.250000
 20
3.130000
  0
SEQEND
  8
gg1
  0
POLYLINE
  8
gg1
 62
1
 40
0.000000
 41
0.000000
 66
  1
  0
VERTEX
  8
gg1
 10
-1.270000
 20
3.210000
  0
VERTEX
  8
gg1
 10
-1.230000
 20
3.210000
  0
SEQEND
  8
gg1
  0
POLYLINE
  8
gg1
 62
1
 40
0.000000
 41
0.000000
 66
  1
  0
VERTEX
  8
gg1
 10
-1.250000
 20
3.190000
  0
VERTEX
  8
gg1
 10
-1.250000
 20
3.230000
  0
SEQEND
  8
gg1
  0
POLYLINE
  8
gg1
 62
1
 40
0.000000
 41
0.000000
 66
  1
  0
VERTEX
  8
gg1
 10
-0.370000
 20
3.210000
  0
VERTEX
  8
gg1
 10
-0.330000
 20
3.210000
  0
SEQEND
  8
gg1
  0
POLYLINE
  8
gg1
 62
1
 40
0.000000
 41
0.000000
 66
  1
  0
VERTEX
  8
gg1
 10
-0.350000
 20
3.190000
  0
VERTEX
  8
gg1
 10
-0.350000
 20
3.230000
  0
SEQEND
  8
gg1
  0
POLYLINE
  8
gg1
 62
1
 40
0.000000
 41
0.000000
 66
  1
  0
VERTEX
  8
gg1
 10
-0.270000
 20
3.210000
  0
VERTEX
  8
gg1
 10
-0.230000
 20
3.210000
  0
SEQEND
  8
gg1
  0
POLYLINE
  8
gg1
 62
1
 40
0.000000
 41
0.000000
 66
  1
  0
VERTEX
  8
gg1
 10
-0.250000
 20
3.190000
  0
VERTEX
  8
gg1
 10
-0.250000
 20
3.230000
  0
SEQEND
  8
gg1
  0
POLYLINE
  8
gg1
 62
1
 40
0.000000
 41
0.000000
 66
  1
  0
VERTEX
  8
gg1
 10
-0.170000
 20
3.210000
  0
VERTEX
  8
gg1
 10
-0.130000
 20
3.210000
  0
SEQEND
  8
gg1
  0
POLYLINE
  8
gg1
 62
1
 40
0.000000
 41
0.000000
 66
  1
  0
VERTEX
  8
gg1
 10
-0.150000
 20
3.190000
  0
VERTEX
  8
gg1
 10
-0.150000
 20
3.230000
  0
SEQEND
  8
gg1
  0
POLYLINE
  8
gg1
 62
1
 40
0.000000
 41
0.000000
 66
  1
  0
VERTEX
  8
gg1
 10
0.330000
 20
3.210000
  0
VERTEX
  8
gg1
 10
0.370000
 20
3.210000
  0
SEQEND
  8
gg1
  0
POLYLINE
  8
gg1
 62
1
 40
0.000000
 41
0.000000
 66
  1
  0
VERTEX
  8
gg1
 10
0.350000
 20
3.190000
  0
VERTEX
  8
gg1
 10
0.350000
 20
3.230000
  0
SEQEND
  8
gg1
  0
POLYLINE
  8
gg1
 62
1
 40
0.000000
 41
0.000000
 66
  1
  0
VERTEX
  8
gg1
 10
0.430000
 20
3.210000
  0
VERTEX
  8
gg1
 10
0.470000
 20
3.210000
  0
SEQEND
  8
gg1
  0
POLYLINE
  8
gg1
 62
1
 40
0.000000
 41
0.000000
 66
  1
  0
VERTEX
  8
gg1
 10
0.450000
 20
3.190000
  0
VERTEX
  8
gg1
 10
0.450000
 20
3.230000
  0
SEQEND
  8
gg1
  0
POLYLINE
  8
gg1
 62
1
 40
0.000000
 41
0.000000
 66
  1
  0
VERTEX
  8
gg1
 10
0.530000
 20
3.210000
  0
VERTEX
  8
gg1
 10
0.570000
 20
3.210000
  0
SEQEND
  8
gg1
  0
POLYLINE
  8
gg1
 62
1
 40
0.000000
 41
0.000000
 66
  1
  0
VERTEX
  8
gg1
 10
0.550000
 20
3.190000
  0
VERTEX
  8
gg1
 10
0.550000
 20
3.230000
  0
SEQEND
  8
gg1
  0
POLYLINE
  8
gg1
 62
1
 40
0.000000
 41
0.000000
 66
  1
  0
VERTEX
  8
gg1
 10
0.630000
 20
3.210000
  0
VERTEX
  8
gg1
 10
0.670000
 20
3.210000
  0
SEQEND
  8
gg1
  0
POLYLINE
  8
gg1
 62
1
 40
0.000000
 41
0.000000
 66
  1
  0
VERTEX
  8
gg1
 10
0.650000
 20
3.190000
  0
VERTEX
  8
gg1
 10
0.650000
 20
3.230000
  0
SEQEND
  8
gg1
  0
POLYLINE
  8
gg1
 62
1
 40
0.000000
 41
0.000000
 66
  1
  0
VERTEX
  8
gg1
 10
0.730000
 20
3.210000
  0
VERTEX
  8
gg1
 10
0.770000
 20
3.210000
  0
SEQEND
  8
gg1
  0
POLYLINE
  8
gg1
 62
1
 40
0.000000
 41
0.000000
 66
  1
  0
VERTEX
  8
gg1
 10
0.750000
 20
3.190000
  0
VERTEX
  8
gg1
 10
0.750000
 20
3.230000
  0
SEQEND
  8
gg1
  0
POLYLINE
  8
gg1
 62
1
 40
0.000000
 41
0.000000
 66
  1
  0
VERTEX
  8
gg1
 10
0.230000
 20
3.210000
  0
VERTEX
  8
gg1
 10
0.270000
 20
3.210000
  0
SEQEND
  8
gg1
  0
POLYLINE
  8
gg1
 62
1
 40
0.000000
 41
0.000000
 66
  1
  0
VERTEX
  8
gg1
 10
0.250000
 20
3.190000
  0
VERTEX
  8
gg1
 10
0.250000
 20
3.230000
  0
SEQEND
  8
gg1
  0
POLYLINE
  8
gg1
 62
1
 40
0.000000
 41
0.000000
 66
  1
  0
VERTEX
  8
gg1
 10
0.130000
 20
3.210000
  0
VERTEX
  8
gg1
 10
0.170000
 20
3.210000
  0
SEQEND
  8
gg1
  0
POLYLINE
  8
gg1
 62
1
 40
0.000000
 41
0.000000
 66
  1
  0
VERTEX
  8
gg1
 10
0.150000
 20
3.190000
  0
VERTEX
  8
gg1
 10
0.150000
 20
3.230000
  0
SEQEND
  8
gg1
  0
POLYLINE
  8
gg1
 62
1
 40
0.000000
 41
0.000000
 66
  1
  0
VERTEX
  8
gg1
 10
0.030000
 20
3.210000
  0
VERTEX
  8
gg1
 10
0.070000
 20
3.210000
  0
SEQEND
  8
gg1
  0
POLYLINE
  8
gg1
 62
1
 40
0.000000
 41
0.000000
 66
  1
  0
VERTEX
  8
gg1
 10
0.050000
 20
3.190000
  0
VERTEX
  8
gg1
 10
0.050000
 20
3.230000
  0
SEQEND
  8
gg1
  0
POLYLINE
  8
gg1
 62
1
 40
0.000000
 41
0.000000
 66
  1
  0
VERTEX
  8
gg1
 10
-0.070000
 20
3.210000
  0
VERTEX
  8
gg1
 10
-0.030000
 20
3.210000
  0
SEQEND
  8
gg1
  0
POLYLINE
  8
gg1
 62
1
 40
0.000000
 41
0.000000
 66
  1
  0
VERTEX
  8
gg1
 10
-0.050000
 20
3.190000
  0
VERTEX
  8
gg1
 10
-0.050000
 20
3.230000
  0
SEQEND
  8
gg1
  0
POLYLINE
  8
gg1
 62
1
 40
0.000000
 41
0.000000
 66
  1
  0
VERTEX
  8
gg1
 10
-0.470000
 20
3.210000
  0
VERTEX
  8
gg1
 10
-0.430000
 20
3.210000
  0
SEQEND
  8
gg1
  0
POLYLINE
  8
gg1
 62
1
 40
0.000000
 41
0.000000
 66
  1
  0
VERTEX
  8
gg1
 10
-0.450000
 20
3.190000
  0
VERTEX
  8
gg1
 10
-0.450000
 20
3.230000
  0
SEQEND
  8
gg1
  0
POLYLINE
  8
gg1
 62
1
 40
0.000000
 41
0.000000
 66
  1
  0
VERTEX
  8
gg1
 10
-0.570000
 20
3.210000
  0
VERTEX
  8
gg1
 10
-0.530000
 20
3.210000
  0
SEQEND
  8
gg1
  0
POLYLINE
  8
gg1
 62
1
 40
0.000000
 41
0.000000
 66
  1
  0
VERTEX
  8
gg1
 10
-0.550000
 20
3.190000
  0
VERTEX
  8
gg1
 10
-0.550000
 20
3.230000
  0
SEQEND
  8
gg1
  0
POLYLINE
  8
gg1
 62
1
 40
0.000000
 41
0.000000
 66
  1
  0
VERTEX
  8
gg1
 10
-0.670000
 20
3.210000
  0
VERTEX
  8
gg1
 10
-0.630000
 20
3.210000
  0
SEQEND
  8
gg1
  0
POLYLINE
  8
gg1
 62
1
 40
0.000000
 41
0.000000
 66
  1
  0
VERTEX
  8
gg1
 10
-0.650000
 20
3.190000
  0
VERTEX
  8
gg1
 10
-0.650000
 20
3.230000
  0
SEQEND
  8
gg1
  0
POLYLINE
  8
gg1
 62
1
 40
0.000000
 41
0.000000
 66
  1
  0
VERTEX
  8
gg1
 10
-0.770000
 20
3.210000
  0
VERTEX
  8
gg1
 10
-0.730000
 20
3.210000
  0
SEQEND
  8
gg1
  0
POLYLINE
  8
gg1
 62
1
 40
0.000000
 41
0.000000
 66
  1
  0
VERTEX
  8
gg1
 10
-0.750000
 20
3.190000
  0
VERTEX
  8
gg1
 10
-0.750000
 20
3.230000
  0
SEQEND
  8
gg1
  0
POLYLINE
  8
gg1
 62
1
 40
0.000000
 41
0.000000
 66
  1
  0
VERTEX
  8
gg1
 10
0.547600
 20
0.531500
  0
VERTEX
  8
gg1
 10
0.633600
 20
0.531500
  0
SEQEND
  8
gg1
  0
POLYLINE
  8
gg1
 62
1
 40
0.000000
 41
0.000000
 66
  1
  0
VERTEX
  8
gg1
 10
0.590600
 20
0.488500
  0
VERTEX
  8
gg1
 10
0.590600
 20
0.574500
  0
SEQEND
  8
gg1
  0
POLYLINE
  8
gg1
 62
1
 40
0.000000
 41
0.000000
 66
  1
  0
VERTEX
  8
gg1
 10
1.039700
 20
0.531500
  0
VERTEX
  8
gg1
 10
1.125700
 20
0.531500
  0
SEQEND
  8
gg1
  0
POLYLINE
  8
gg1
 62
1
 40
0.000000
 41
0.000000
 66
  1
  0
VERTEX
  8
gg1
 10
1.082700
 20
0.488500
  0
VERTEX
  8
gg1
 10
1.082700
 20
0.574500
  0
SEQEND
  8
gg1
  0
POLYLINE
  8
gg1
 62
1
 40
0.000000
 41
0.000000
 66
  1
  0
VERTEX
  8
gg1
 10
-0.633600
 20
0.531500
  0
VERTEX
  8
gg1
 10
-0.547600
 20
0.531500
  0
SEQEND
  8
gg1
  0
POLYLINE
  8
gg1
 62
1
 40
0.000000
 41
0.000000
 66
  1
  0
VERTEX
  8
gg1
 10
-0.590600
 20
0.488500
  0
VERTEX
  8
gg1
 10
-0.590600
 20
0.574500
  0
SEQEND
  8
gg1
  0
POLYLINE
  8
gg1
 62
1
 40
0.000000
 41
0.000000
 66
  1
  0
VERTEX
  8
gg1
 10
-1.125700
 20
0.531500
  0
VERTEX
  8
gg1
 10
-1.039700
 20
0.531500
  0
SEQEND
  8
gg1
  0
POLYLINE
  8
gg1
 62
1
 40
0.000000
 41
0.000000
 66
  1
  0
VERTEX
  8
gg1
 10
-1.082700
 20
0.488500
  0
VERTEX
  8
gg1
 10
-1.082700
 20
0.574500
  0
SEQEND
  8
gg1
  0
POLYLINE
  8
gg1
 62
1
 40
0.000000
 41
0.000000
 66
  1
  0
VERTEX
  8
gg1
 10
-1.125700
 20
1.003900
  0
VERTEX
  8
gg1
 10
-1.039700
 20
1.003900
  0
SEQEND
  8
gg1
  0
POLYLINE
  8
gg1
 62
1
 40
0.000000
 41
0.000000
 66
  1
  0
VERTEX
  8
gg1
 10
-1.082700
 20
0.960900
  0
VERTEX
  8
gg1
 10
-1.082700
 20
1.046900
  0
SEQEND
  8
gg1
  0
POLYLINE
  8
gg1
 62
1
 40
0.000000
 41
0.000000
 66
  1
  0
VERTEX
  8
gg1
 10
1.039700
 20
1.003900
  0
VERTEX
  8
gg1
 10
1.125700
 20
1.003900
  0
SEQEND
  8
gg1
  0
POLYLINE
  8
gg1
 62
1
 40
0.000000
 41
0.000000
 66
  1
  0
VERTEX
  8
gg1
 10
1.082700
 20
0.960900
  0
VERTEX
  8
gg1
 10
1.082700
 20
1.046900
  0
SEQEND
  8
gg1
  0
POLYLINE
  8
gg1
 62
1
 40
0.000000
 41
0.000000
 66
  1
  0
VERTEX
  8
gg1
 10
-1.125700
 20
1.476400
  0
VERTEX
  8
gg1
 10
-1.039700
 20
1.476400
  0
SEQEND
  8
gg1
  0
POLYLINE
  8
gg1
 62
1
 40
0.000000
 41
0.000000
 66
  1
  0
VERTEX
  8
gg1
 10
-1.082700
 20
1.433400
  0
VERTEX
  8
gg1
 10
-1.082700
 20
1.519400
  0
SEQEND
  8
gg1
  0
POLYLINE
  8
gg1
 62
1
 40
0.000000
 41
0.000000
 66
  1
  0
VERTEX
  8
gg1
 10
1.039700
 20
1.476400
  0
VERTEX
  8
gg1
 10
1.125700
 20
1.476400
  0
SEQEND
  8
gg1
  0
POLYLINE
  8
gg1
 62
1
 40
0.000000
 41
0.000000
 66
  1
  0
VERTEX
  8
gg1
 10
1.082700
 20
1.433400
  0
VERTEX
  8
gg1
 10
1.082700
 20
1.519400
  0
SEQEND
  8
gg1
  0
POLYLINE
  8
gg1
 62
1
 40
0.000000
 41
0.000000
 66
  1
  0
VERTEX
  8
gg1
 10
-1.125700
 20
1.948800
  0
VERTEX
  8
gg1
 10
-1.039700
 20
1.948800
  0
SEQEND
  8
gg1
  0
POLYLINE
  8
gg1
 62
1
 40
0.000000
 41
0.000000
 66
  1
  0
VERTEX
  8
gg1
 10
-1.082700
 20
1.905800
  0
VERTEX
  8
gg1
 10
-1.082700
 20
1.991800
  0
SEQEND
  8
gg1
  0
POLYLINE
  8
gg1
 62
1
 40
0.000000
 41
0.000000
 66
  1
  0
VERTEX
  8
gg1
 10
1.039700
 20
1.948800
  0
VERTEX
  8
gg1
 10
1.125700
 20
1.948800
  0
SEQEND
  8
gg1
  0
POLYLINE
  8
gg1
 62
1
 40
0.000000
 41
0.000000
 66
  1
  0
VERTEX
  8
gg1
 10
1.082700
 20
1.905800
  0
VERTEX
  8
gg1
 10
1.082700
 20
1.991800
  0
SEQEND
  8
gg1
  0
POLYLINE
  8
gg1
 62
1
 40
0.000000
 41
0.000000
 66
  1
  0
VERTEX
  8
gg1
 10
1.146200
 20
0.350400
  0
VERTEX
  8
gg1
 10
1.173800
 20
0.350400
  0
SEQEND
  8
gg1
  0
POLYLINE
  8
gg1
 62
1
 40
0.000000
 41
0.000000
 66
  1
  0
VERTEX
  8
gg1
 10
1.160000
 20
0.336700
  0
VERTEX
  8
gg1
 10
1.160000
 20
0.364200
  0
SEQEND
  8
gg1
  0
POLYLINE
  8
gg1
 62
1
 40
0.000000
 41
0.000000
 66
  1
  0
VERTEX
  8
gg1
 10
1.146200
 20
0.279600
  0
VERTEX
  8
gg1
 10
1.173800
 20
0.279600
  0
SEQEND
  8
gg1
  0
POLYLINE
  8
gg1
 62
1
 40
0.000000
 41
0.000000
 66
  1
  0
VERTEX
  8
gg1
 10
1.160000
 20
0.265800
  0
VERTEX
  8
gg1
 10
1.160000
 20
0.293300
  0
SEQEND
  8
gg1
  0
POLYLINE
  8
gg1
 62
1
 40
0.000000
 41
0.000000
 66
  1
  0
VERTEX
  8
gg1
 10
-0.520000
 20
2.509800
  0
VERTEX
  8
gg1
 10
-0.480000
 20
2.509800
  0
SEQEND
  8
gg1
  0
POLYLINE
  8
gg1
 62
1
 40
0.000000
 41
0.000000
 66
  1
  0
VERTEX
  8
gg1
 10
-0.500000
 20
2.489800
  0
VERTEX
  8
gg1
 10
-0.500000
 20
2.529800
  0
SEQEND
  8
gg1
  0
POLYLINE
  8
gg1
 62
1
 40
0.000000
 41
0.000000
 66
  1
  0
VERTEX
  8
gg1
 10
-0.520000
 20
2.805100
  0
VERTEX
  8
gg1
 10
-0.480000
 20
2.805100
  0
SEQEND
  8
gg1
  0
POLYLINE
  8
gg1
 62
1
 40
0.000000
 41
0.000000
 66
  1
  0
VERTEX
  8
gg1
 10
-0.500000
 20
2.785100
  0
VERTEX
  8
gg1
 10
-0.500000
 20
2.825100
  0
SEQEND
  8
gg1
  0
POLYLINE
  8
gg1
 62
1
 40
0.000000
 41
0.000000
 66
  1
  0
VERTEX
  8
gg1
 10
-1.027300
 20
3.011800
  0
VERTEX
  8
gg1
 10
-0.941300
 20
3.011800
  0
SEQEND
  8
gg1
  0
POLYLINE
  8
gg1
 62
1
 40
0.000000
 41
0.000000
 66
  1
  0
VERTEX
  8
gg1
 10
-0.984300
 20
2.968800
  0
VERTEX
  8
gg1
 10
-0.984300
 20
3.054800
  0
SEQEND
  8
gg1
  0
POLYLINE
  8
gg1
 62
1
 40
0.000000
 41
0.000000
 66
  1
  0
VERTEX
  8
gg1
 10
0.480000
 20
2.509800
  0
VERTEX
  8
gg1
 10
0.520000
 20
2.509800
  0
SEQEND
  8
gg1
  0
POLYLINE
  8
gg1
 62
1
 40
0.000000
 41
0.000000
 66
  1
  0
VERTEX
  8
gg1
 10
0.500000
 20
2.489800
  0
VERTEX
  8
gg1
 10
0.500000
 20
2.529800
  0
SEQEND
  8
gg1
  0
POLYLINE
  8
gg1
 62
1
 40
0.000000
 41
0.000000
 66
  1
  0
VERTEX
  8
gg1
 10
0.480000
 20
2.805100
  0
VERTEX
  8
gg1
 10
0.520000
 20
2.805100
  0
SEQEND
  8
gg1
  0
POLYLINE
  8
gg1
 62
1
 40
0.000000
 41
0.000000
 66
  1
  0
VERTEX
  8
gg1
 10
0.500000
 20
2.785100
  0
VERTEX
  8
gg1
 10
0.500000
 20
2.825100
  0
SEQEND
  8
gg1
  0
POLYLINE
  8
gg1
 62
1
 40
0.000000
 41
0.000000
 66
  1
  0
VERTEX
  8
gg1
 10
0.941300
 20
3.011800
  0
VERTEX
  8
gg1
 10
1.027300
 20
3.011800
  0
SEQEND
  8
gg1
  0
POLYLINE
  8
gg1
 62
1
 40
0.000000
 41
0.000000
 66
  1
  0
VERTEX
  8
gg1
 10
0.984300
 20
2.968800
  0
VERTEX
  8
gg1
 10
0.984300
 20
3.054800
  0
SEQEND
  8
gg1
  0
POLYLINE
  8
gg1
 62
1
 40
0.000000
 41
0.000000
 66
  1
  0
VERTEX
  8
gg1
 10
-0.905800
 20
0.137800
  0
VERTEX
  8
gg1
 10
-0.865800
 20
0.137800
  0
SEQEND
  8
gg1
  0
POLYLINE
  8
gg1
 62
1
 40
0.000000
 41
0.000000
 66
  1
  0
VERTEX
  8
gg1
 10
-0.885800
 20
0.117800
  0
VERTEX
  8
gg1
 10
-0.885800
 20
0.157800
  0
SEQEND
  8
gg1
  0
POLYLINE
  8
gg1
 62
1
 40
0.000000
 41
0.000000
 66
  1
  0
VERTEX
  8
gg1
 10
0.865800
 20
0.137800
  0
VERTEX
  8
gg1
 10
0.905800
 20
0.137800
  0
SEQEND
  8
gg1
  0
POLYLINE
  8
gg1
 62
1
 40
0.000000
 41
0.000000
 66
  1
  0
VERTEX
  8
gg1
 10
0.885800
 20
0.117800
  0
VERTEX
  8
gg1
 10
0.885800
 20
0.157800
  0
SEQEND
  8
gg1
  0
POLYLINE
  8
gg1
 62
1
 40
0.000000
 41
0.000000
 66
  1
  0
VERTEX
  8
gg1
 10
-0.252500
 20
1.592500
  0
VERTEX
  8
gg1
 10
-0.217500
 20
1.592500
  0
SEQEND
  8
gg1
  0
POLYLINE
  8
gg1
 62
1
 40
0.000000
 41
0.000000
 66
  1
  0
VERTEX
  8
gg1
 10
-0.235000
 20
1.575000
  0
VERTEX
  8
gg1
 10
-0.235000
 20
1.610000
  0
SEQEND
  8
gg1
  0
POLYLINE
  8
gg1
 62
1
 40
0.000000
 41
0.000000
 66
  1
  0
VERTEX
  8
gg1
 10
-0.252500
 20
1.750000
  0
VERTEX
  8
gg1
 10
-0.217500
 20
1.750000
  0
SEQEND
  8
gg1
  0
POLYLINE
  8
gg1
 62
1
 40
0.000000
 41
0.000000
 66
  1
  0
VERTEX
  8
gg1
 10
-0.235000
 20
1.732500
  0
VERTEX
  8
gg1
 10
-0.235000
 20
1.767500
  0
SEQEND
  8
gg1
  0
POLYLINE
  8
gg1
 62
1
 40
0.000000
 41
0.000000
 66
  1
  0
VERTEX
  8
gg1
 10
-0.970000
 20
0.735000
  0
VERTEX
  8
gg1
 10
-0.930000
 20
0.735000
  0
SEQEND
  8
gg1
  0
POLYLINE
  8
gg1
 62
1
 40
0.000000
 41
0.000000
 66
  1
  0
VERTEX
  8
gg1
 10
-0.950000
 20
0.715000
  0
VERTEX
  8
gg1
 10
-0.950000
 20
0.755000
  0
SEQEND
  8
gg1
  0
POLYLINE
  8
gg1
 62
1
 40
0.000000
 41
0.000000
 66
  1
  0
VERTEX
  8
gg1
 10
-0.970000
 20
1.135000
  0
VERTEX
  8
gg1
 10
-0.930000
 20
1.135000
  0
SEQEND
  8
gg1
  0
POLYLINE
  8
gg1
 62
1
 40
0.000000
 41
0.000000
 66
  1
  0
VERTEX
  8
gg1
 10
-0.950000
 20
1.115000
  0
VERTEX
  8
gg1
 10
-0.950000
 20
1.155000
  0
SEQEND
  8
gg1
  0
POLYLINE
  8
gg1
 62
1
 40
0.000000
 41
0.000000
 66
  1
  0
VERTEX
  8
gg1
 10
-0.970000
 20
1.235000
  0
VERTEX
  8
gg1
 10
-0.930000
 20
1.235000
  0
SEQEND
  8
gg1
  0
POLYLINE
  8
gg1
 62
1
 40
0.000000
 41
0.000000
 66
  1
  0
VERTEX
  8
gg1
 10
-0.950000
 20
1.215000
  0
VERTEX
  8
gg1
 10
-0.950000
 20
1.255000
  0
SEQEND
  8
gg1
  0
POLYLINE
  8
gg1
 62
1
 40
0.000000
 41
0.000000
 66
  1
  0
VERTEX
  8
gg1
 10
-0.970000
 20
1.335000
  0
VERTEX
  8
gg1
 10
-0.930000
 20
1.335000
  0
SEQEND
  8
gg1
  0
POLYLINE
  8
gg1
 62
1
 40
0.000000
 41
0.000000
 66
  1
  0
VERTEX
  8
gg1
 10
-0.950000
 20
1.315000
  0
VERTEX
  8
gg1
 10
-0.950000
 20
1.355000
  0
SEQEND
  8
gg1
  0
POLYLINE
  8
gg1
 62
1
 40
0.000000
 41
0.000000
 66
  1
  0
VERTEX
  8
gg1
 10
-0.970000
 20
1.435000
  0
VERTEX
  8
gg1
 10
-0.930000
 20
1.435000
  0
SEQEND
  8
gg1
  0
POLYLINE
  8
gg1
 62
1
 40
0.000000
 41
0.000000
 66
  1
  0
VERTEX
  8
gg1
 10
-0.950000
 20
1.415000
  0
VERTEX
  8
gg1
 10
-0.950000
 20
1.455000
  0
SEQEND
  8
gg1
  0
POLYLINE
  8
gg1
 62
1
 40
0.000000
 41
0.000000
 66
  1
  0
VERTEX
  8
gg1
 10
-0.970000
 20
1.935000
  0
VERTEX
  8
gg1
 10
-0.930000
 20
1.935000
  0
SEQEND
  8
gg1
  0
POLYLINE
  8
gg1
 62
1
 40
0.000000
 41
0.000000
 66
  1
  0
VERTEX
  8
gg1
 10
-0.950000
 20
1.915000
  0
VERTEX
  8
gg1
 10
-0.950000
 20
1.955000
  0
SEQEND
  8
gg1
  0
POLYLINE
  8
gg1
 62
1
 40
0.000000
 41
0.000000
 66
  1
  0
VERTEX
  8
gg1
 10
-0.970000
 20
1.835000
  0
VERTEX
  8
gg1
 10
-0.930000
 20
1.835000
  0
SEQEND
  8
gg1
  0
POLYLINE
  8
gg1
 62
1
 40
0.000000
 41
0.000000
 66
  1
  0
VERTEX
  8
gg1
 10
-0.950000
 20
1.815000
  0
VERTEX
  8
gg1
 10
-0.950000
 20
1.855000
  0
SEQEND
  8
gg1
  0
POLYLINE
  8
gg1
 62
1
 40
0.000000
 41
0.000000
 66
  1
  0
VERTEX
  8
gg1
 10
-0.970000
 20
1.735000
  0
VERTEX
  8
gg1
 10
-0.930000
 20
1.735000
  0
SEQEND
  8
gg1
  0
POLYLINE
  8
gg1
 62
1
 40
0.000000
 41
0.000000
 66
  1
  0
VERTEX
  8
gg1
 10
-0.950000
 20
1.715000
  0
VERTEX
  8
gg1
 10
-0.950000
 20
1.755000
  0
SEQEND
  8
gg1
  0
POLYLINE
  8
gg1
 62
1
 40
0.000000
 41
0.000000
 66
  1
  0
VERTEX
  8
gg1
 10
-0.970000
 20
1.635000
  0
VERTEX
  8
gg1
 10
-0.930000
 20
1.635000
  0
SEQEND
  8
gg1
  0
POLYLINE
  8
gg1
 62
1
 40
0.000000
 41
0.000000
 66
  1
  0
VERTEX
  8
gg1
 10
-0.950000
 20
1.615000
  0
VERTEX
  8
gg1
 10
-0.950000
 20
1.655000
  0
SEQEND
  8
gg1
  0
POLYLINE
  8
gg1
 62
1
 40
0.000000
 41
0.000000
 66
  1
  0
VERTEX
  8
gg1
 10
-0.970000
 20
1.535000
  0
VERTEX
  8
gg1
 10
-0.930000
 20
1.535000
  0
SEQEND
  8
gg1
  0
POLYLINE
  8
gg1
 62
1
 40
0.000000
 41
0.000000
 66
  1
  0
VERTEX
  8
gg1
 10
-0.950000
 20
1.515000
  0
VERTEX
  8
gg1
 10
-0.950000
 20
1.555000
  0
SEQEND
  8
gg1
  0
POLYLINE
  8
gg1
 62
1
 40
0.000000
 41
0.000000
 66
  1
  0
VERTEX
  8
gg1
 10
-0.970000
 20
1.035000
  0
VERTEX
  8
gg1
 10
-0.930000
 20
1.035000
  0
SEQEND
  8
gg1
  0
POLYLINE
  8
gg1
 62
1
 40
0.000000
 41
0.000000
 66
  1
  0
VERTEX
  8
gg1
 10
-0.950000
 20
1.015000
  0
VERTEX
  8
gg1
 10
-0.950000
 20
1.055000
  0
SEQEND
  8
gg1
  0
POLYLINE
  8
gg1
 62
1
 40
0.000000
 41
0.000000
 66
  1
  0
VERTEX
  8
gg1
 10
-0.970000
 20
0.935000
  0
VERTEX
  8
gg1
 10
-0.930000
 20
0.935000
  0
SEQEND
  8
gg1
  0
POLYLINE
  8
gg1
 62
1
 40
0.000000
 41
0.000000
 66
  1
  0
VERTEX
  8
gg1
 10
-0.950000
 20
0.915000
  0
VERTEX
  8
gg1
 10
-0.950000
 20
0.955000
  0
SEQEND
  8
gg1
  0
POLYLINE
  8
gg1
 62
1
 40
0.000000
 41
0.000000
 66
  1
  0
VERTEX
  8
gg1
 10
-0.970000
 20
0.835000
  0
VERTEX
  8
gg1
 10
-0.930000
 20
0.835000
  0
SEQEND
  8
gg1
  0
POLYLINE
  8
gg1
 62
1
 40
0.000000
 41
0.000000
 66
  1
  0
VERTEX
  8
gg1
 10
-0.950000
 20
0.815000
  0
VERTEX
  8
gg1
 10
-0.950000
 20
0.855000
  0
SEQEND
  8
gg1
  0
POLYLINE
  8
gg1
 62
1
 40
0.000000
 41
0.000000
 66
  1
  0
VERTEX
  8
gg1
 10
-0.870000
 20
0.735000
  0
VERTEX
  8
gg1
 10
-0.830000
 20
0.735000
  0
SEQEND
  8
gg1
  0
POLYLINE
  8
gg1
 62
1
 40
0.000000
 41
0.000000
 66
  1
  0
VERTEX
  8
gg1
 10
-0.850000
 20
0.715000
  0
VERTEX
  8
gg1
 10
-0.850000
 20
0.755000
  0
SEQEND
  8
gg1
  0
POLYLINE
  8
gg1
 62
1
 40
0.000000
 41
0.000000
 66
  1
  0
VERTEX
  8
gg1
 10
-0.870000
 20
1.135000
  0
VERTEX
  8
gg1
 10
-0.830000
 20
1.135000
  0
SEQEND
  8
gg1
  0
POLYLINE
  8
gg1
 62
1
 40
0.000000
 41
0.000000
 66
  1
  0
VERTEX
  8
gg1
 10
-0.850000
 20
1.115000
  0
VERTEX
  8
gg1
 10
-0.850000
 20
1.155000
  0
SEQEND
  8
gg1
  0
POLYLINE
  8
gg1
 62
1
 40
0.000000
 41
0.000000
 66
  1
  0
VERTEX
  8
gg1
 10
-0.870000
 20
1.235000
  0
VERTEX
  8
gg1
 10
-0.830000
 20
1.235000
  0
SEQEND
  8
gg1
  0
POLYLINE
  8
gg1
 62
1
 40
0.000000
 41
0.000000
 66
  1
  0
VERTEX
  8
gg1
 10
-0.850000
 20
1.215000
  0
VERTEX
  8
gg1
 10
-0.850000
 20
1.255000
  0
SEQEND
  8
gg1
  0
POLYLINE
  8
gg1
 62
1
 40
0.000000
 41
0.000000
 66
  1
  0
VERTEX
  8
gg1
 10
-0.870000
 20
1.335000
  0
VERTEX
  8
gg1
 10
-0.830000
 20
1.335000
  0
SEQEND
  8
gg1
  0
POLYLINE
  8
gg1
 62
1
 40
0.000000
 41
0.000000
 66
  1
  0
VERTEX
  8
gg1
 10
-0.850000
 20
1.315000
  0
VERTEX
  8
gg1
 10
-0.850000
 20
1.355000
  0
SEQEND
  8
gg1
  0
POLYLINE
  8
gg1
 62
1
 40
0.000000
 41
0.000000
 66
  1
  0
VERTEX
  8
gg1
 10
-0.870000
 20
1.435000
  0
VERTEX
  8
gg1
 10
-0.830000
 20
1.435000
  0
SEQEND
  8
gg1
  0
POLYLINE
  8
gg1
 62
1
 40
0.000000
 41
0.000000
 66
  1
  0
VERTEX
  8
gg1
 10
-0.850000
 20
1.415000
  0
VERTEX
  8
gg1
 10
-0.850000
 20
1.455000
  0
SEQEND
  8
gg1
  0
POLYLINE
  8
gg1
 62
1
 40
0.000000
 41
0.000000
 66
  1
  0
VERTEX
  8
gg1
 10
-0.870000
 20
1.935000
  0
VERTEX
  8
gg1
 10
-0.830000
 20
1.935000
  0
SEQEND
  8
gg1
  0
POLYLINE
  8
gg1
 62
1
 40
0.000000
 41
0.000000
 66
  1
  0
VERTEX
  8
gg1
 10
-0.850000
 20
1.915000
  0
VERTEX
  8
gg1
 10
-0.850000
 20
1.955000
  0
SEQEND
  8
gg1
  0
POLYLINE
  8
gg1
 62
1
 40
0.000000
 41
0.000000
 66
  1
  0
VERTEX
  8
gg1
 10
-0.870000
 20
1.835000
  0
VERTEX
  8
gg1
 10
-0.830000
 20
1.835000
  0
SEQEND
  8
gg1
  0
POLYLINE
  8
gg1
 62
1
 40
0.000000
 41
0.000000
 66
  1
  0
VERTEX
  8
gg1
 10
-0.850000
 20
1.815000
  0
VERTEX
  8
gg1
 10
-0.850000
 20
1.855000
  0
SEQEND
  8
gg1
  0
POLYLINE
  8
gg1
 62
1
 40
0.000000
 41
0.000000
 66
  1
  0
VERTEX
  8
gg1
 10
-0.870000
 20
1.735000
  0
VERTEX
  8
gg1
 10
-0.830000
 20
1.735000
  0
SEQEND
  8
gg1
  0
POLYLINE
  8
gg1
 62
1
 40
0.000000
 41
0.000000
 66
  1
  0
VERTEX
  8
gg1
 10
-0.850000
 20
1.715000
  0
VERTEX
  8
gg1
 10
-0.850000
 20
1.755000
  0
SEQEND
  8
gg1
  0
POLYLINE
  8
gg1
 62
1
 40
0.000000
 41
0.000000
 66
  1
  0
VERTEX
  8
gg1
 10
-0.870000
 20
1.635000
  0
VERTEX
  8
gg1
 10
-0.830000
 20
1.635000
  0
SEQEND
  8
gg1
  0
POLYLINE
  8
gg1
 62
1
 40
0.000000
 41
0.000000
 66
  1
  0
VERTEX
  8
gg1
 10
-0.850000
 20
1.615000
  0
VERTEX
  8
gg1
 10
-0.850000
 20
1.655000
  0
SEQEND
  8
gg1
  0
POLYLINE
  8
gg1
 62
1
 40
0.000000
 41
0.000000
 66
  1
  0
VERTEX
  8
gg1
 10
-0.870000
 20
1.535000
  0
VERTEX
  8
gg1
 10
-0.830000
 20
1.535000
  0
SEQEND
  8
gg1
  0
POLYLINE
  8
gg1
 62
1
 40
0.000000
 41
0.000000
 66
  1
  0
VERTEX
  8
gg1
 10
-0.850000
 20
1.515000
  0
VERTEX
  8
gg1
 10
-0.850000
 20
1.555000
  0
SEQEND
  8
gg1
  0
POLYLINE
  8
gg1
 62
1
 40
0.000000
 41
0.000000
 66
  1
  0
VERTEX
  8
gg1
 10
-0.870000
 20
1.035000
  0
VERTEX
  8
gg1
 10
-0.830000
 20
1.035000
  0
SEQEND
  8
gg1
  0
POLYLINE
  8
gg1
 62
1
 40
0.000000
 41
0.000000
 66
  1
  0
VERTEX
  8
gg1
 10
-0.850000
 20
1.015000
  0
VERTEX
  8
gg1
 10
-0.850000
 20
1.055000
  0
SEQEND
  8
gg1
  0
POLYLINE
  8
gg1
 62
1
 40
0.000000
 41
0.000000
 66
  1
  0
VERTEX
  8
gg1
 10
-0.870000
 20
0.935000
  0
VERTEX
  8
gg1
 10
-0.830000
 20
0.935000
  0
SEQEND
  8
gg1
  0
POLYLINE
  8
gg1
 62
1
 40
0.000000
 41
0.000000
 66
  1
  0
VERTEX
  8
gg1
 10
-0.850000
 20
0.915000
  0
VERTEX
  8
gg1
 10
-0.850000
 20
0.955000
  0
SEQEND
  8
gg1
  0
POLYLINE
  8
gg1
 62
1
 40
0.000000
 41
0.000000
 66
  1
  0
VERTEX
  8
gg1
 10
-0.870000
 20
0.835000
  0
VERTEX
  8
gg1
 10
-0.830000
 20
0.835000
  0
SEQEND
  8
gg1
  0
POLYLINE
  8
gg1
 62
1
 40
0.000000
 41
0.000000
 66
  1
  0
VERTEX
  8
gg1
 10
-0.850000
 20
0.815000
  0
VERTEX
  8
gg1
 10
-0.850000
 20
0.855000
  0
SEQEND
  8
gg1
  0
POLYLINE
  8
gg1
 62
1
 40
0.000000
 41
0.000000
 66
  1
  0
VERTEX
  8
gg1
 10
0.830000
 20
0.735000
  0
VERTEX
  8
gg1
 10
0.870000
 20
0.735000
  0
SEQEND
  8
gg1
  0
POLYLINE
  8
gg1
 62
1
 40
0.000000
 41
0.000000
 66
  1
  0
VERTEX
  8
gg1
 10
0.850000
 20
0.715000
  0
VERTEX
  8
gg1
 10
0.850000
 20
0.755000
  0
SEQEND
  8
gg1
  0
POLYLINE
  8
gg1
 62
1
 40
0.000000
 41
0.000000
 66
  1
  0
VERTEX
  8
gg1
 10
0.830000
 20
1.135000
  0
VERTEX
  8
gg1
 10
0.870000
 20
1.135000
  0
SEQEND
  8
gg1
  0
POLYLINE
  8
gg1
 62
1
 40
0.000000
 41
0.000000
 66
  1
  0
VERTEX
  8
gg1
 10
0.850000
 20
1.115000
  0
VERTEX
  8
gg1
 10
0.850000
 20
1.155000
  0
SEQEND
  8
gg1
  0
POLYLINE
  8
gg1
 62
1
 40
0.000000
 41
0.000000
 66
  1
  0
VERTEX
  8
gg1
 10
0.830000
 20
1.235000
  0
VERTEX
  8
gg1
 10
0.870000
 20
1.235000
  0
SEQEND
  8
gg1
  0
POLYLINE
  8
gg1
 62
1
 40
0.000000
 41
0.000000
 66
  1
  0
VERTEX
  8
gg1
 10
0.850000
 20
1.215000
  0
VERTEX
  8
gg1
 10
0.850000
 20
1.255000
  0
SEQEND
  8
gg1
  0
POLYLINE
  8
gg1
 62
1
 40
0.000000
 41
0.000000
 66
  1
  0
VERTEX
  8
gg1
 10
0.830000
 20
1.335000
  0
VERTEX
  8
gg1
 10
0.870000
 20
1.335000
  0
SEQEND
  8
gg1
  0
POLYLINE
  8
gg1
 62
1
 40
0.000000
 41
0.000000
 66
  1
  0
VERTEX
  8
gg1
 10
0.850000
 20
1.315000
  0
VERTEX
  8
gg1
 10
0.850000
 20
1.355000
  0
SEQEND
  8
gg1
  0
POLYLINE
  8
gg1
 62
1
 40
0.000000
 41
0.000000
 66
  1
  0
VERTEX
  8
gg1
 10
0.830000
 20
1.435000
  0
VERTEX
  8
gg1
 10
0.870000
 20
1.435000
  0
SEQEND
  8
gg1
  0
POLYLINE
  8
gg1
 62
1
 40
0.000000
 41
0.000000
 66
  1
  0
VERTEX
  8
gg1
 10
0.850000
 20
1.415000
  0
VERTEX
  8
gg1
 10
0.850000
 20
1.455000
  0
SEQEND
  8
gg1
  0
POLYLINE
  8
gg1
 62
1
 40
0.000000
 41
0.000000
 66
  1
  0
VERTEX
  8
gg1
 10
0.830000
 20
1.935000
  0
VERTEX
  8
gg1
 10
0.870000
 20
1.935000
  0
SEQEND
  8
gg1
  0
POLYLINE
  8
gg1
 62
1
 40
0.000000
 41
0.000000
 66
  1
  0
VERTEX
  8
gg1
 10
0.850000
 20
1.915000
  0
VERTEX
  8
gg1
 10
0.850000
 20
1.955000
  0
SEQEND
  8
gg1
  0
POLYLINE
  8
gg1
 62
1
 40
0.000000
 41
0.000000
 66
  1
  0
VERTEX
  8
gg1
 10
0.830000
 20
1.835000
  0
VERTEX
  8
gg1
 10
0.870000
 20
1.835000
  0
SEQEND
  8
gg1
  0
POLYLINE
  8
gg1
 62
1
 40
0.000000
 41
0.000000
 66
  1
  0
VERTEX
  8
gg1
 10
0.850000
 20
1.815000
  0
VERTEX
  8
gg1
 10
0.850000
 20
1.855000
  0
SEQEND
  8
gg1
  0
POLYLINE
  8
gg1
 62
1
 40
0.000000
 41
0.000000
 66
  1
  0
VERTEX
  8
gg1
 10
0.830000
 20
1.735000
  0
VERTEX
  8
gg1
 10
0.870000
 20
1.735000
  0
SEQEND
  8
gg1
  0
POLYLINE
  8
gg1
 62
1
 40
0.000000
 41
0.000000
 66
  1
  0
VERTEX
  8
gg1
 10
0.850000
 20
1.715000
  0
VERTEX
  8
gg1
 10
0.850000
 20
1.755000
  0
SEQEND
  8
gg1
  0
POLYLINE
  8
gg1
 62
1
 40
0.000000
 41
0.000000
 66
  1
  0
VERTEX
  8
gg1
 10
0.830000
 20
1.635000
  0
VERTEX
  8
gg1
 10
0.870000
 20
1.635000
  0
SEQEND
  8
gg1
  0
POLYLINE
  8
gg1
 62
1
 40
0.000000
 41
0.000000
 66
  1
  0
VERTEX
  8
gg1
 10
0.850000
 20
1.615000
  0
VERTEX
  8
gg1
 10
0.850000
 20
1.655000
  0
SEQEND
  8
gg1
  0
POLYLINE
  8
gg1
 62
1
 40
0.000000
 41
0.000000
 66
  1
  0
VERTEX
  8
gg1
 10
0.830000
 20
1.535000
  0
VERTEX
  8
gg1
 10
0.870000
 20
1.535000
  0
SEQEND
  8
gg1
  0
POLYLINE
  8
gg1
 62
1
 40
0.000000
 41
0.000000
 66
  1
  0
VERTEX
  8
gg1
 10
0.850000
 20
1.515000
  0
VERTEX
  8
gg1
 10
0.850000
 20
1.555000
  0
SEQEND
  8
gg1
  0
POLYLINE
  8
gg1
 62
1
 40
0.000000
 41
0.000000
 66
  1
  0
VERTEX
  8
gg1
 10
0.830000
 20
1.035000
  0
VERTEX
  8
gg1
 10
0.870000
 20
1.035000
  0
SEQEND
  8
gg1
  0
POLYLINE
  8
gg1
 62
1
 40
0.000000
 41
0.000000
 66
  1
  0
VERTEX
  8
gg1
 10
0.850000
 20
1.015000
  0
VERTEX
  8
gg1
 10
0.850000
 20
1.055000
  0
SEQEND
  8
gg1
  0
POLYLINE
  8
gg1
 62
1
 40
0.000000
 41
0.000000
 66
  1
  0
VERTEX
  8
gg1
 10
0.830000
 20
0.935000
  0
VERTEX
  8
gg1
 10
0.870000
 20
0.935000
  0
SEQEND
  8
gg1
  0
POLYLINE
  8
gg1
 62
1
 40
0.000000
 41
0.000000
 66
  1
  0
VERTEX
  8
gg1
 10
0.850000
 20
0.915000
  0
VERTEX
  8
gg1
 10
0.850000
 20
0.955000
  0
SEQEND
  8
gg1
  0
POLYLINE
  8
gg1
 62
1
 40
0.000000
 41
0.000000
 66
  1
  0
VERTEX
  8
gg1
 10
0.830000
 20
0.835000
  0
VERTEX
  8
gg1
 10
0.870000
 20
0.835000
  0
SEQEND
  8
gg1
  0
POLYLINE
  8
gg1
 62
1
 40
0.000000
 41
0.000000
 66
  1
  0
VERTEX
  8
gg1
 10
0.850000
 20
0.815000
  0
VERTEX
  8
gg1
 10
0.850000
 20
0.855000
  0
SEQEND
  8
gg1
  0
POLYLINE
  8
gg1
 62
1
 40
0.000000
 41
0.000000
 66
  1
  0
VERTEX
  8
gg1
 10
0.930000
 20
0.735000
  0
VERTEX
  8
gg1
 10
0.970000
 20
0.735000
  0
SEQEND
  8
gg1
  0
POLYLINE
  8
gg1
 62
1
 40
0.000000
 41
0.000000
 66
  1
  0
VERTEX
  8
gg1
 10
0.950000
 20
0.715000
  0
VERTEX
  8
gg1
 10
0.950000
 20
0.755000
  0
SEQEND
  8
gg1
  0
POLYLINE
  8
gg1
 62
1
 40
0.000000
 41
0.000000
 66
  1
  0
VERTEX
  8
gg1
 10
0.930000
 20
1.135000
  0
VERTEX
  8
gg1
 10
0.970000
 20
1.135000
  0
SEQEND
  8
gg1
  0
POLYLINE
  8
gg1
 62
1
 40
0.000000
 41
0.000000
 66
  1
  0
VERTEX
  8
gg1
 10
0.950000
 20
1.115000
  0
VERTEX
  8
gg1
 10
0.950000
 20
1.155000
  0
SEQEND
  8
gg1
  0
POLYLINE
  8
gg1
 62
1
 40
0.000000
 41
0.000000
 66
  1
  0
VERTEX
  8
gg1
 10
0.930000
 20
1.235000
  0
VERTEX
  8
gg1
 10
0.970000
 20
1.235000
  0
SEQEND
  8
gg1
  0
POLYLINE
  8
gg1
 62
1
 40
0.000000
 41
0.000000
 66
  1
  0
VERTEX
  8
gg1
 10
0.950000
 20
1.215000
  0
VERTEX
  8
gg1
 10
0.950000
 20
1.255000
  0
SEQEND
  8
gg1
  0
POLYLINE
  8
gg1
 62
1
 40
0.000000
 41
0.000000
 66
  1
  0
VERTEX
  8
gg1
 10
0.930000
 20
1.335000
  0
VERTEX
  8
gg1
 10
0.970000
 20
1.335000
  0
SEQEND
  8
gg1
  0
POLYLINE
  8
gg1
 62
1
 40
0.000000
 41
0.000000
 66
  1
  0
VERTEX
  8
gg1
 10
0.950000
 20
1.315000
  0
VERTEX
  8
gg1
 10
0.950000
 20
1.355000
  0
SEQEND
  8
gg1
  0
POLYLINE
  8
gg1
 62
1
 40
0.000000
 41
0.000000
 66
  1
  0
VERTEX
  8
gg1
 10
0.930000
 20
1.435000
  0
VERTEX
  8
gg1
 10
0.970000
 20
1.435000
  0
SEQEND
  8
gg1
  0
POLYLINE
  8
gg1
 62
1
 40
0.000000
 41
0.000000
 66
  1
  0
VERTEX
  8
gg1
 10
0.950000
 20
1.415000
  0
VERTEX
  8
gg1
 10
0.950000
 20
1.455000
  0
SEQEND
  8
gg1
  0
POLYLINE
  8
gg1
 62
1
 40
0.000000
 41
0.000000
 66
  1
  0
VERTEX
  8
gg1
 10
0.930000
 20
1.935000
  0
VERTEX
  8
gg1
 10
0.970000
 20
1.935000
  0
SEQEND
  8
gg1
  0
POLYLINE
  8
gg1
 62
1
 40
0.000000
 41
0.000000
 66
  1
  0
VERTEX
  8
gg1
 10
0.950000
 20
1.915000
  0
VERTEX
  8
gg1
 10
0.950000
 20
1.955000
  0
SEQEND
  8
gg1
  0
POLYLINE
  8
gg1
 62
1
 40
0.000000
 41
0.000000
 66
  1
  0
VERTEX
  8
gg1
 10
0.930000
 20
1.835000
  0
VERTEX
  8
gg1
 10
0.970000
 20
1.835000
  0
SEQEND
  8
gg1
  0
POLYLINE
  8
gg1
 62
1
 40
0.000000
 41
0.000000
 66
  1
  0
VERTEX
  8
gg1
 10
0.950000
 20
1.815000
  0
VERTEX
  8
gg1
 10
0.950000
 20
1.855000
  0
SEQEND
  8
gg1
  0
POLYLINE
  8
gg1
 62
1
 40
0.000000
 41
0.000000
 66
  1
  0
VERTEX
  8
gg1
 10
0.930000
 20
1.735000
  0
VERTEX
  8
gg1
 10
0.970000
 20
1.735000
  0
SEQEND
  8
gg1
  0
POLYLINE
  8
gg1
 62
1
 40
0.000000
 41
0.000000
 66
  1
  0
VERTEX
  8
gg1
 10
0.950000
 20
1.715000
  0
VERTEX
  8
gg1
 10
0.950000
 20
1.755000
  0
SEQEND
  8
gg1
  0
POLYLINE
  8
gg1
 62
1
 40
0.000000
 41
0.000000
 66
  1
  0
VERTEX
  8
gg1
 10
0.930000
 20
1.635000
  0
VERTEX
  8
gg1
 10
0.970000
 20
1.635000
  0
SEQEND
  8
gg1
  0
POLYLINE
  8
gg1
 62
1
 40
0.000000
 41
0.000000
 66
  1
  0
VERTEX
  8
gg1
 10
0.950000
 20
1.615000
  0
VERTEX
  8
gg1
 10
0.950000
 20
1.655000
  0
SEQEND
  8
gg1
  0
POLYLINE
  8
gg1
 62
1
 40
0.000000
 41
0.000000
 66
  1
  0
VERTEX
  8
gg1
 10
0.930000
 20
1.535000
  0
VERTEX
  8
gg1
 10
0.970000
 20
1.535000
  0
SEQEND
  8
gg1
  0
POLYLINE
  8
gg1
 62
1
 40
0.000000
 41
0.000000
 66
  1
  0
VERTEX
  8
gg1
 10
0.950000
 20
1.515000
  0
VERTEX
  8
gg1
 10
0.950000
 20
1.555000
  0
SEQEND
  8
gg1
  0
POLYLINE
  8
gg1
 62
1
 40
0.000000
 41
0.000000
 66
  1
  0
VERTEX
  8
gg1
 10
0.930000
 20
1.035000
  0
VERTEX
  8
gg1
 10
0.970000
 20
1.035000
  0
SEQEND
  8
gg1
  0
POLYLINE
  8
gg1
 62
1
 40
0.000000
 41
0.000000
 66
  1
  0
VERTEX
  8
gg1
 10
0.950000
 20
1.015000
  0
VERTEX
  8
gg1
 10
0.950000
 20
1.055000
  0
SEQEND
  8
gg1
  0
POLYLINE
  8
gg1
 62
1
 40
0.000000
 41
0.000000
 66
  1
  0
VERTEX
  8
gg1
 10
0.930000
 20
0.935000
  0
VERTEX
  8
gg1
 10
0.970000
 20
0.935000
  0
SEQEND
  8
gg1
  0
POLYLINE
  8
gg1
 62
1
 40
0.000000
 41
0.000000
 66
  1
  0
VERTEX
  8
gg1
 10
0.950000
 20
0.915000
  0
VERTEX
  8
gg1
 10
0.950000
 20
0.955000
  0
SEQEND
  8
gg1
  0
POLYLINE
  8
gg1
 62
1
 40
0.000000
 41
0.000000
 66
  1
  0
VERTEX
  8
gg1
 10
0.930000
 20
0.835000
  0
VERTEX
  8
gg1
 10
0.970000
 20
0.835000
  0
SEQEND
  8
gg1
  0
POLYLINE
  8
gg1
 62
1
 40
0.000000
 41
0.000000
 66
  1
  0
VERTEX
  8
gg1
 10
0.950000
 20
0.815000
  0
VERTEX
  8
gg1
 10
0.950000
 20
0.855000
  0
SEQEND
  8
gg1
  0
POLYLINE
  8
gg1
 62
1
 40
0.000000
 41
0.000000
 66
  1
  0
VERTEX
  8
gg1
 10
-0.043000
 20
1.948800
  0
VERTEX
  8
gg1
 10
0.043000
 20
1.948800
  0
SEQEND
  8
gg1
  0
POLYLINE
  8
gg1
 62
1
 40
0.000000
 41
0.000000
 66
  1
  0
VERTEX
  8
gg1
 10
0.000000
 20
1.905800
  0
VERTEX
  8
gg1
 10
0.000000
 20
1.991800
  0
SEQEND
  8
gg1
  0
POLYLINE
  8
gg1
 62
1
 40
0.000000
 41
0.000000
 66
  1
  0
VERTEX
  8
gg1
 10
0.537000
 20
0.123700
  0
VERTEX
  8
gg1
 10
0.558600
 20
0.123700
  0
SEQEND
  8
gg1
  0
POLYLINE
  8
gg1
 62
1
 40
0.000000
 41
0.000000
 66
  1
  0
VERTEX
  8
gg1
 10
0.547800
 20
0.112900
  0
VERTEX
  8
gg1
 10
0.547800
 20
0.134500
  0
SEQEND
  8
gg1
  0
POLYLINE
  8
gg1
 62
1
 40
0.000000
 41
0.000000
 66
  1
  0
VERTEX
  8
gg1
 10
0.300700
 20
0.230000
  0
VERTEX
  8
gg1
 10
0.322400
 20
0.230000
  0
SEQEND
  8
gg1
  0
POLYLINE
  8
gg1
 62
1
 40
0.000000
 41
0.000000
 66
  1
  0
VERTEX
  8
gg1
 10
0.311600
 20
0.219200
  0
VERTEX
  8
gg1
 10
0.311600
 20
0.240800
  0
SEQEND
  8
gg1
  0
POLYLINE
  8
gg1
 62
1
 40
0.000000
 41
0.000000
 66
  1
  0
VERTEX
  8
gg1
 10
0.261400
 20
0.123700
  0
VERTEX
  8
gg1
 10
0.283000
 20
0.123700
  0
SEQEND
  8
gg1
  0
POLYLINE
  8
gg1
 62
1
 40
0.000000
 41
0.000000
 66
  1
  0
VERTEX
  8
gg1
 10
0.272200
 20
0.112900
  0
VERTEX
  8
gg1
 10
0.272200
 20
0.134500
  0
SEQEND
  8
gg1
  0
POLYLINE
  8
gg1
 62
1
 40
0.000000
 41
0.000000
 66
  1
  0
VERTEX
  8
gg1
 10
0.497600
 20
0.230000
  0
VERTEX
  8
gg1
 10
0.519300
 20
0.230000
  0
SEQEND
  8
gg1
  0
POLYLINE
  8
gg1
 62
1
 40
0.000000
 41
0.000000
 66
  1
  0
VERTEX
  8
gg1
 10
0.508400
 20
0.219200
  0
VERTEX
  8
gg1
 10
0.508400
 20
0.240800
  0
SEQEND
  8
gg1
  0
POLYLINE
  8
gg1
 62
1
 40
0.000000
 41
0.000000
 66
  1
  0
VERTEX
  8
gg1
 10
-1.400000
 20
1.615000
  0
VERTEX
  8
gg1
 10
-1.360000
 20
1.615000
  0
SEQEND
  8
gg1
  0
POLYLINE
  8
gg1
 62
1
 40
0.000000
 41
0.000000
 66
  1
  0
VERTEX
  8
gg1
 10
-1.380000
 20
1.595000
  0
VERTEX
  8
gg1
 10
-1.380000
 20
1.635000
  0
SEQEND
  8
gg1
  0
POLYLINE
  8
gg1
 62
1
 40
0.000000
 41
0.000000
 66
  1
  0
VERTEX
  8
gg1
 10
-1.400000
 20
1.715000
  0
VERTEX
  8
gg1
 10
-1.360000
 20
1.715000
  0
SEQEND
  8
gg1
  0
POLYLINE
  8
gg1
 62
1
 40
0.000000
 41
0.000000
 66
  1
  0
VERTEX
  8
gg1
 10
-1.380000
 20
1.695000
  0
VERTEX
  8
gg1
 10
-1.380000
 20
1.735000
  0
SEQEND
  8
gg1
  0
POLYLINE
  8
gg1
 62
1
 40
0.000000
 41
0.000000
 66
  1
  0
VERTEX
  8
gg1
 10
-1.400000
 20
1.815000
  0
VERTEX
  8
gg1
 10
-1.360000
 20
1.815000
  0
SEQEND
  8
gg1
  0
POLYLINE
  8
gg1
 62
1
 40
0.000000
 41
0.000000
 66
  1
  0
VERTEX
  8
gg1
 10
-1.380000
 20
1.795000
  0
VERTEX
  8
gg1
 10
-1.380000
 20
1.835000
  0
SEQEND
  8
gg1
  0
POLYLINE
  8
gg1
 62
1
 40
0.000000
 41
0.000000
 66
  1
  0
VERTEX
  8
gg1
 10
1.360000
 20
1.610000
  0
VERTEX
  8
gg1
 10
1.400000
 20
1.610000
  0
SEQEND
  8
gg1
  0
POLYLINE
  8
gg1
 62
1
 40
0.000000
 41
0.000000
 66
  1
  0
VERTEX
  8
gg1
 10
1.380000
 20
1.590000
  0
VERTEX
  8
gg1
 10
1.380000
 20
1.630000
  0
SEQEND
  8
gg1
  0
POLYLINE
  8
gg1
 62
1
 40
0.000000
 41
0.000000
 66
  1
  0
VERTEX
  8
gg1
 10
1.360000
 20
1.710000
  0
VERTEX
  8
gg1
 10
1.400000
 20
1.710000
  0
SEQEND
  8
gg1
  0
POLYLINE
  8
gg1
 62
1
 40
0.000000
 41
0.000000
 66
  1
  0
VERTEX
  8
gg1
 10
1.380000
 20
1.690000
  0
VERTEX
  8
gg1
 10
1.380000
 20
1.730000
  0
SEQEND
  8
gg1
  0
POLYLINE
  8
gg1
 62
1
 40
0.000000
 41
0.000000
 66
  1
  0
VERTEX
  8
gg1
 10
1.360000
 20
1.810000
  0
VERTEX
  8
gg1
 10
1.400000
 20
1.810000
  0
SEQEND
  8
gg1
  0
POLYLINE
  8
gg1
 62
1
 40
0.000000
 41
0.000000
 66
  1
  0
VERTEX
  8
gg1
 10
1.380000
 20
1.790000
  0
VERTEX
  8
gg1
 10
1.380000
 20
1.830000
  0
SEQEND
  8
gg1
  0
POLYLINE
  8
gg1
 62
1
 40
0.000000
 41
0.000000
 66
  1
  0
VERTEX
  8
gg1
 10
-0.570000
 20
3.110000
  0
VERTEX
  8
gg1
 10
-0.530000
 20
3.110000
  0
SEQEND
  8
gg1
  0
POLYLINE
  8
gg1
 62
1
 40
0.000000
 41
0.000000
 66
  1
  0
VERTEX
  8
gg1
 10
-0.550000
 20
3.090000
  0
VERTEX
  8
gg1
 10
-0.550000
 20
3.130000
  0
SEQEND
  8
gg1
  0
POLYLINE
  8
gg1
 62
1
 40
0.000000
 41
0.000000
 66
  1
  0
VERTEX
  8
gg1
 10
-0.470000
 20
3.110000
  0
VERTEX
  8
gg1
 10
-0.430000
 20
3.110000
  0
SEQEND
  8
gg1
  0
POLYLINE
  8
gg1
 62
1
 40
0.000000
 41
0.000000
 66
  1
  0
VERTEX
  8
gg1
 10
-0.450000
 20
3.090000
  0
VERTEX
  8
gg1
 10
-0.450000
 20
3.130000
  0
SEQEND
  8
gg1
  0
POLYLINE
  8
gg1
 62
1
 40
0.000000
 41
0.000000
 66
  1
  0
VERTEX
  8
gg1
 10
-0.370000
 20
3.110000
  0
VERTEX
  8
gg1
 10
-0.330000
 20
3.110000
  0
SEQEND
  8
gg1
  0
POLYLINE
  8
gg1
 62
1
 40
0.000000
 41
0.000000
 66
  1
  0
VERTEX
  8
gg1
 10
-0.350000
 20
3.090000
  0
VERTEX
  8
gg1
 10
-0.350000
 20
3.130000
  0
SEQEND
  8
gg1
  0
POLYLINE
  8
gg1
 62
1
 40
0.000000
 41
0.000000
 66
  1
  0
VERTEX
  8
gg1
 10
0.130000
 20
3.110000
  0
VERTEX
  8
gg1
 10
0.170000
 20
3.110000
  0
SEQEND
  8
gg1
  0
POLYLINE
  8
gg1
 62
1
 40
0.000000
 41
0.000000
 66
  1
  0
VERTEX
  8
gg1
 10
0.150000
 20
3.090000
  0
VERTEX
  8
gg1
 10
0.150000
 20
3.130000
  0
SEQEND
  8
gg1
  0
POLYLINE
  8
gg1
 62
1
 40
0.000000
 41
0.000000
 66
  1
  0
VERTEX
  8
gg1
 10
0.230000
 20
3.110000
  0
VERTEX
  8
gg1
 10
0.270000
 20
3.110000
  0
SEQEND
  8
gg1
  0
POLYLINE
  8
gg1
 62
1
 40
0.000000
 41
0.000000
 66
  1
  0
VERTEX
  8
gg1
 10
0.250000
 20
3.090000
  0
VERTEX
  8
gg1
 10
0.250000
 20
3.130000
  0
SEQEND
  8
gg1
  0
POLYLINE
  8
gg1
 62
1
 40
0.000000
 41
0.000000
 66
  1
  0
VERTEX
  8
gg1
 10
0.330000
 20
3.110000
  0
VERTEX
  8
gg1
 10
0.370000
 20
3.110000
  0
SEQEND
  8
gg1
  0
POLYLINE
  8
gg1
 62
1
 40
0.000000
 41
0.000000
 66
  1
  0
VERTEX
  8
gg1
 10
0.350000
 20
3.090000
  0
VERTEX
  8
gg1
 10
0.350000
 20
3.130000
  0
SEQEND
  8
gg1
  0
POLYLINE
  8
gg1
 62
1
 40
0.000000
 41
0.000000
 66
  1
  0
VERTEX
  8
gg1
 10
0.430000
 20
3.110000
  0
VERTEX
  8
gg1
 10
0.470000
 20
3.110000
  0
SEQEND
  8
gg1
  0
POLYLINE
  8
gg1
 62
1
 40
0.000000
 41
0.000000
 66
  1
  0
VERTEX
  8
gg1
 10
0.450000
 20
3.090000
  0
VERTEX
  8
gg1
 10
0.450000
 20
3.130000
  0
SEQEND
  8
gg1
  0
POLYLINE
  8
gg1
 62
1
 40
0.000000
 41
0.000000
 66
  1
  0
VERTEX
  8
gg1
 10
0.530000
 20
3.110000
  0
VERTEX
  8
gg1
 10
0.570000
 20
3.110000
  0
SEQEND
  8
gg1
  0
POLYLINE
  8
gg1
 62
1
 40
0.000000
 41
0.000000
 66
  1
  0
VERTEX
  8
gg1
 10
0.550000
 20
3.090000
  0
VERTEX
  8
gg1
 10
0.550000
 20
3.130000
  0
SEQEND
  8
gg1
  0
POLYLINE
  8
gg1
 62
1
 40
0.000000
 41
0.000000
 66
  1
  0
VERTEX
  8
gg1
 10
0.030000
 20
3.110000
  0
VERTEX
  8
gg1
 10
0.070000
 20
3.110000
  0
SEQEND
  8
gg1
  0
POLYLINE
  8
gg1
 62
1
 40
0.000000
 41
0.000000
 66
  1
  0
VERTEX
  8
gg1
 10
0.050000
 20
3.090000
  0
VERTEX
  8
gg1
 10
0.050000
 20
3.130000
  0
SEQEND
  8
gg1
  0
POLYLINE
  8
gg1
 62
1
 40
0.000000
 41
0.000000
 66
  1
  0
VERTEX
  8
gg1
 10
-0.070000
 20
3.110000
  0
VERTEX
  8
gg1
 10
-0.030000
 20
3.110000
  0
SEQEND
  8
gg1
  0
POLYLINE
  8
gg1
 62
1
 40
0.000000
 41
0.000000
 66
  1
  0
VERTEX
  8
gg1
 10
-0.050000
 20
3.090000
  0
VERTEX
  8
gg1
 10
-0.050000
 20
3.130000
  0
SEQEND
  8
gg1
  0
POLYLINE
  8
gg1
 62
1
 40
0.000000
 41
0.000000
 66
  1
  0
VERTEX
  8
gg1
 10
-0.170000
 20
3.110000
  0
VERTEX
  8
gg1
 10
-0.130000
 20
3.110000
  0
SEQEND
  8
gg1
  0
POLYLINE
  8
gg1
 62
1
 40
0.000000
 41
0.000000
 66
  1
  0
VERTEX
  8
gg1
 10
-0.150000
 20
3.090000
  0
VERTEX
  8
gg1
 10
-0.150000
 20
3.130000
  0
SEQEND
  8
gg1
  0
POLYLINE
  8
gg1
 62
1
 40
0.000000
 41
0.000000
 66
  1
  0
VERTEX
  8
gg1
 10
-0.270000
 20
3.110000
  0
VERTEX
  8
gg1
 10
-0.230000
 20
3.110000
  0
SEQEND
  8
gg1
  0
POLYLINE
  8
gg1
 62
1
 40
0.000000
 41
0.000000
 66
  1
  0
VERTEX
  8
gg1
 10
-0.250000
 20
3.090000
  0
VERTEX
  8
gg1
 10
-0.250000
 20
3.130000
  0
SEQEND
  8
gg1
  0
POLYLINE
  8
gg1
 62
1
 40
0.000000
 41
0.000000
 66
  1
  0
VERTEX
  8
gg1
 10
-0.570000
 20
3.010000
  0
VERTEX
  8
gg1
 10
-0.530000
 20
3.010000
  0
SEQEND
  8
gg1
  0
POLYLINE
  8
gg1
 62
1
 40
0.000000
 41
0.000000
 66
  1
  0
VERTEX
  8
gg1
 10
-0.550000
 20
2.990000
  0
VERTEX
  8
gg1
 10
-0.550000
 20
3.030000
  0
SEQEND
  8
gg1
  0
POLYLINE
  8
gg1
 62
1
 40
0.000000
 41
0.000000
 66
  1
  0
VERTEX
  8
gg1
 10
-0.470000
 20
3.010000
  0
VERTEX
  8
gg1
 10
-0.430000
 20
3.010000
  0
SEQEND
  8
gg1
  0
POLYLINE
  8
gg1
 62
1
 40
0.000000
 41
0.000000
 66
  1
  0
VERTEX
  8
gg1
 10
-0.450000
 20
2.990000
  0
VERTEX
  8
gg1
 10
-0.450000
 20
3.030000
  0
SEQEND
  8
gg1
  0
POLYLINE
  8
gg1
 62
1
 40
0.000000
 41
0.000000
 66
  1
  0
VERTEX
  8
gg1
 10
-0.370000
 20
3.010000
  0
VERTEX
  8
gg1
 10
-0.330000
 20
3.010000
  0
SEQEND
  8
gg1
  0
POLYLINE
  8
gg1
 62
1
 40
0.000000
 41
0.000000
 66
  1
  0
VERTEX
  8
gg1
 10
-0.350000
 20
2.990000
  0
VERTEX
  8
gg1
 10
-0.350000
 20
3.030000
  0
SEQEND
  8
gg1
  0
POLYLINE
  8
gg1
 62
1
 40
0.000000
 41
0.000000
 66
  1
  0
VERTEX
  8
gg1
 10
0.130000
 20
3.010000
  0
VERTEX
  8
gg1
 10
0.170000
 20
3.010000
  0
SEQEND
  8
gg1
  0
POLYLINE
  8
gg1
 62
1
 40
0.000000
 41
0.000000
 66
  1
  0
VERTEX
  8
gg1
 10
0.150000
 20
2.990000
  0
VERTEX
  8
gg1
 10
0.150000
 20
3.030000
  0
SEQEND
  8
gg1
  0
POLYLINE
  8
gg1
 62
1
 40
0.000000
 41
0.000000
 66
  1
  0
VERTEX
  8
gg1
 10
0.230000
 20
3.010000
  0
VERTEX
  8
gg1
 10
0.270000
 20
3.010000
  0
SEQEND
  8
gg1
  0
POLYLINE
  8
gg1
 62
1
 40
0.000000
 41
0.000000
 66
  1
  0
VERTEX
  8
gg1
 10
0.250000
 20
2.990000
  0
VERTEX
  8
gg1
 10
0.250000
 20
3.030000
  0
SEQEND
  8
gg1
  0
POLYLINE
  8
gg1
 62
1
 40
0.000000
 41
0.000000
 66
  1
  0
VERTEX
  8
gg1
 10
0.330000
 20
3.010000
  0
VERTEX
  8
gg1
 10
0.370000
 20
3.010000
  0
SEQEND
  8
gg1
  0
POLYLINE
  8
gg1
 62
1
 40
0.000000
 41
0.000000
 66
  1
  0
VERTEX
  8
gg1
 10
0.350000
 20
2.990000
  0
VERTEX
  8
gg1
 10
0.350000
 20
3.030000
  0
SEQEND
  8
gg1
  0
POLYLINE
  8
gg1
 62
1
 40
0.000000
 41
0.000000
 66
  1
  0
VERTEX
  8
gg1
 10
0.430000
 20
3.010000
  0
VERTEX
  8
gg1
 10
0.470000
 20
3.010000
  0
SEQEND
  8
gg1
  0
POLYLINE
  8
gg1
 62
1
 40
0.000000
 41
0.000000
 66
  1
  0
VERTEX
  8
gg1
 10
0.450000
 20
2.990000
  0
VERTEX
  8
gg1
 10
0.450000
 20
3.030000
  0
SEQEND
  8
gg1
  0
POLYLINE
  8
gg1
 62
1
 40
0.000000
 41
0.000000
 66
  1
  0
VERTEX
  8
gg1
 10
0.530000
 20
3.010000
  0
VERTEX
  8
gg1
 10
0.570000
 20
3.010000
  0
SEQEND
  8
gg1
  0
POLYLINE
  8
gg1
 62
1
 40
0.000000
 41
0.000000
 66
  1
  0
VERTEX
  8
gg1
 10
0.550000
 20
2.990000
  0
VERTEX
  8
gg1
 10
0.550000
 20
3.030000
  0
SEQEND
  8
gg1
  0
POLYLINE
  8
gg1
 62
1
 40
0.000000
 41
0.000000
 66
  1
  0
VERTEX
  8
gg1
 10
0.030000
 20
3.010000
  0
VERTEX
  8
gg1
 10
0.070000
 20
3.010000
  0
SEQEND
  8
gg1
  0
POLYLINE
  8
gg1
 62
1
 40
0.000000
 41
0.000000
 66
  1
  0
VERTEX
  8
gg1
 10
0.050000
 20
2.990000
  0
VERTEX
  8
gg1
 10
0.050000
 20
3.030000
  0
SEQEND
  8
gg1
  0
POLYLINE
  8
gg1
 62
1
 40
0.000000
 41
0.000000
 66
  1
  0
VERTEX
  8
gg1
 10
-0.070000
 20
3.010000
  0
VERTEX
  8
gg1
 10
-0.030000
 20
3.010000
  0
SEQEND
  8
gg1
  0
POLYLINE
  8
gg1
 62
1
 40
0.000000
 41
0.000000
 66
  1
  0
VERTEX
  8
gg1
 10
-0.050000
 20
2.990000
  0
VERTEX
  8
gg1
 10
-0.050000
 20
3.030000
  0
SEQEND
  8
gg1
  0
POLYLINE
  8
gg1
 62
1
 40
0.000000
 41
0.000000
 66
  1
  0
VERTEX
  8
gg1
 10
-0.170000
 20
3.010000
  0
VERTEX
  8
gg1
 10
-0.130000
 20
3.010000
  0
SEQEND
  8
gg1
  0
POLYLINE
  8
gg1
 62
1
 40
0.000000
 41
0.000000
 66
  1
  0
VERTEX
  8
gg1
 10
-0.150000
 20
2.990000
  0
VERTEX
  8
gg1
 10
-0.150000
 20
3.030000
  0
SEQEND
  8
gg1
  0
POLYLINE
  8
gg1
 62
1
 40
0.000000
 41
0.000000
 66
  1
  0
VERTEX
  8
gg1
 10
-0.270000
 20
3.010000
  0
VERTEX
  8
gg1
 10
-0.230000
 20
3.010000
  0
SEQEND
  8
gg1
  0
POLYLINE
  8
gg1
 62
1
 40
0.000000
 41
0.000000
 66
  1
  0
VERTEX
  8
gg1
 10
-0.250000
 20
2.990000
  0
VERTEX
  8
gg1
 10
-0.250000
 20
3.030000
  0
SEQEND
  8
gg1
  0
POLYLINE
  8
gg1
 62
1
 40
0.000000
 41
0.000000
 66
  1
  0
VERTEX
  8
gg1
 10
-0.313000
 20
2.075000
  0
VERTEX
  8
gg1
 10
-0.287000
 20
2.075000
  0
SEQEND
  8
gg1
  0
POLYLINE
  8
gg1
 62
1
 40
0.000000
 41
0.000000
 66
  1
  0
VERTEX
  8
gg1
 10
-0.300000
 20
2.062000
  0
VERTEX
  8
gg1
 10
-0.300000
 20
2.088000
  0
SEQEND
  8
gg1
  0
POLYLINE
  8
gg1
 62
1
 40
0.000000
 41
0.000000
 66
  1
  0
VERTEX
  8
gg1
 10
-0.313000
 20
2.345000
  0
VERTEX
  8
gg1
 10
-0.287000
 20
2.345000
  0
SEQEND
  8
gg1
  0
POLYLINE
  8
gg1
 62
1
 40
0.000000
 41
0.000000
 66
  1
  0
VERTEX
  8
gg1
 10
-0.300000
 20
2.332000
  0
VERTEX
  8
gg1
 10
-0.300000
 20
2.358000
  0
SEQEND
  8
gg1
  0
POLYLINE
  8
gg1
 62
1
 40
0.000000
 41
0.000000
 66
  1
  0
VERTEX
  8
gg1
 10
-0.213000
 20
2.345000
  0
VERTEX
  8
gg1
 10
-0.187000
 20
2.345000
  0
SEQEND
  8
gg1
  0
POLYLINE
  8
gg1
 62
1
 40
0.000000
 41
0.000000
 66
  1
  0
VERTEX
  8
gg1
 10
-0.200000
 20
2.332000
  0
VERTEX
  8
gg1
 10
-0.200000
 20
2.358000
  0
SEQEND
  8
gg1
  0
POLYLINE
  8
gg1
 62
1
 40
0.000000
 41
0.000000
 66
  1
  0
VERTEX
  8
gg1
 10
-0.213000
 20
2.075000
  0
VERTEX
  8
gg1
 10
-0.187000
 20
2.075000
  0
SEQEND
  8
gg1
  0
POLYLINE
  8
gg1
 62
1
 40
0.000000
 41
0.000000
 66
  1
  0
VERTEX
  8
gg1
 10
-0.200000
 20
2.062000
  0
VERTEX
  8
gg1
 10
-0.200000
 20
2.088000
  0
SEQEND
  8
gg1
  0
POLYLINE
  8
gg1
 62
1
 40
0.000000
 41
0.000000
 66
  1
  0
VERTEX
  8
gg1
 10
-0.113000
 20
2.345000
  0
VERTEX
  8
gg1
 10
-0.087000
 20
2.345000
  0
SEQEND
  8
gg1
  0
POLYLINE
  8
gg1
 62
1
 40
0.000000
 41
0.000000
 66
  1
  0
VERTEX
  8
gg1
 10
-0.100000
 20
2.332000
  0
VERTEX
  8
gg1
 10
-0.100000
 20
2.358000
  0
SEQEND
  8
gg1
  0
POLYLINE
  8
gg1
 62
1
 40
0.000000
 41
0.000000
 66
  1
  0
VERTEX
  8
gg1
 10
-0.113000
 20
2.075000
  0
VERTEX
  8
gg1
 10
-0.087000
 20
2.075000
  0
SEQEND
  8
gg1
  0
POLYLINE
  8
gg1
 62
1
 40
0.000000
 41
0.000000
 66
  1
  0
VERTEX
  8
gg1
 10
-0.100000
 20
2.062000
  0
VERTEX
  8
gg1
 10
-0.100000
 20
2.088000
  0
SEQEND
  8
gg1
  0
POLYLINE
  8
gg1
 62
1
 40
0.000000
 41
0.000000
 66
  1
  0
VERTEX
  8
gg1
 10
-0.013000
 20
2.345000
  0
VERTEX
  8
gg1
 10
0.013000
 20
2.345000
  0
SEQEND
  8
gg1
  0
POLYLINE
  8
gg1
 62
1
 40
0.000000
 41
0.000000
 66
  1
  0
VERTEX
  8
gg1
 10
0.000000
 20
2.332000
  0
VERTEX
  8
gg1
 10
0.000000
 20
2.358000
  0
SEQEND
  8
gg1
  0
POLYLINE
  8
gg1
 62
1
 40
0.000000
 41
0.000000
 66
  1
  0
VERTEX
  8
gg1
 10
-0.013000
 20
2.075000
  0
VERTEX
  8
gg1
 10
0.013000
 20
2.075000
  0
SEQEND
  8
gg1
  0
POLYLINE
  8
gg1
 62
1
 40
0.000000
 41
0.000000
 66
  1
  0
VERTEX
  8
gg1
 10
0.000000
 20
2.062000
  0
VERTEX
  8
gg1
 10
0.000000
 20
2.088000
  0
SEQEND
  8
gg1
  0
POLYLINE
  8
gg1
 62
1
 40
0.000000
 41
0.000000
 66
  1
  0
VERTEX
  8
gg1
 10
0.087000
 20
2.345000
  0
VERTEX
  8
gg1
 10
0.113000
 20
2.345000
  0
SEQEND
  8
gg1
  0
POLYLINE
  8
gg1
 62
1
 40
0.000000
 41
0.000000
 66
  1
  0
VERTEX
  8
gg1
 10
0.100000
 20
2.332000
  0
VERTEX
  8
gg1
 10
0.100000
 20
2.358000
  0
SEQEND
  8
gg1
  0
POLYLINE
  8
gg1
 62
1
 40
0.000000
 41
0.000000
 66
  1
  0
VERTEX
  8
gg1
 10
0.087000
 20
2.075000
  0
VERTEX
  8
gg1
 10
0.113000
 20
2.075000
  0
SEQEND
  8
gg1
  0
POLYLINE
  8
gg1
 62
1
 40
0.000000
 41
0.000000
 66
  1
  0
VERTEX
  8
gg1
 10
0.100000
 20
2.062000
  0
VERTEX
  8
gg1
 10
0.100000
 20
2.088000
  0
SEQEND
  8
gg1
  0
POLYLINE
  8
gg1
 62
1
 40
0.000000
 41
0.000000
 66
  1
  0
VERTEX
  8
gg1
 10
0.187000
 20
2.345000
  0
VERTEX
  8
gg1
 10
0.213000
 20
2.345000
  0
SEQEND
  8
gg1
  0
POLYLINE
  8
gg1
 62
1
 40
0.000000
 41
0.000000
 66
  1
  0
VERTEX
  8
gg1
 10
0.200000
 20
2.332000
  0
VERTEX
  8
gg1
 10
0.200000
 20
2.358000
  0
SEQEND
  8
gg1
  0
POLYLINE
  8
gg1
 62
1
 40
0.000000
 41
0.000000
 66
  1
  0
VERTEX
  8
gg1
 10
0.187000
 20
2.075000
  0
VERTEX
  8
gg1
 10
0.213000
 20
2.075000
  0
SEQEND
  8
gg1
  0
POLYLINE
  8
gg1
 62
1
 40
0.000000
 41
0.000000
 66
  1
  0
VERTEX
  8
gg1
 10
0.200000
 20
2.062000
  0
VERTEX
  8
gg1
 10
0.200000
 20
2.088000
  0
SEQEND
  8
gg1
  0
POLYLINE
  8
gg1
 62
1
 40
0.000000
 41
0.000000
 66
  1
  0
VERTEX
  8
gg1
 10
0.287000
 20
2.345000
  0
VERTEX
  8
gg1
 10
0.313000
 20
2.345000
  0
SEQEND
  8
gg1
  0
POLYLINE
  8
gg1
 62
1
 40
0.000000
 41
0.000000
 66
  1
  0
VERTEX
  8
gg1
 10
0.300000
 20
2.332000
  0
VERTEX
  8
gg1
 10
0.300000
 20
2.358000
  0
SEQEND
  8
gg1
  0
POLYLINE
  8
gg1
 62
1
 40
0.000000
 41
0.000000
 66
  1
  0
VERTEX
  8
gg1
 10
0.287000
 20
2.075000
  0
VERTEX
  8
gg1
 10
0.313000
 20
2.075000
  0
SEQEND
  8
gg1
  0
POLYLINE
  8
gg1
 62
1
 40
0.000000
 41
0.000000
 66
  1
  0
VERTEX
  8
gg1
 10
0.300000
 20
2.062000
  0
VERTEX
  8
gg1
 10
0.300000
 20
2.088000
  0
SEQEND
  8
gg1
  0
POLYLINE
  8
gg1
 62
1
 40
0.000000
 41
0.000000
 66
  1
  0
VERTEX
  8
gg1
 10
-0.275600
 20
2.210000
  0
VERTEX
  8
gg1
 10
-0.224400
 20
2.210000
  0
SEQEND
  8
gg1
  0
POLYLINE
  8
gg1
 62
1
 40
0.000000
 41
0.000000
 66
  1
  0
VERTEX
  8
gg1
 10
-0.250000
 20
2.184400
  0
VERTEX
  8
gg1
 10
-0.250000
 20
2.235600
  0
SEQEND
  8
gg1
  0
POLYLINE
  8
gg1
 62
1
 40
0.000000
 41
0.000000
 66
  1
  0
VERTEX
  8
gg1
 10
0.224400
 20
2.210000
  0
VERTEX
  8
gg1
 10
0.275600
 20
2.210000
  0
SEQEND
  8
gg1
  0
POLYLINE
  8
gg1
 62
1
 40
0.000000
 41
0.000000
 66
  1
  0
VERTEX
  8
gg1
 10
0.250000
 20
2.184400
  0
VERTEX
  8
gg1
 10
0.250000
 20
2.235600
  0
SEQEND
  8
gg1
  0
POLYLINE
  8
gg1
 62
1
 40
0.000000
 41
0.000000
 66
  1
  0
VERTEX
  8
gg1
 10
1.096200
 20
0.805400
  0
VERTEX
  8
gg1
 10
1.123800
 20
0.805400
  0
SEQEND
  8
gg1
  0
POLYLINE
  8
gg1
 62
1
 40
0.000000
 41
0.000000
 66
  1
  0
VERTEX
  8
gg1
 10
1.110000
 20
0.791700
  0
VERTEX
  8
gg1
 10
1.110000
 20
0.819200
  0
SEQEND
  8
gg1
  0
POLYLINE
  8
gg1
 62
1
 40
0.000000
 41
0.000000
 66
  1
  0
VERTEX
  8
gg1
 10
1.096200
 20
0.734600
  0
VERTEX
  8
gg1
 10
1.123800
 20
0.734600
  0
SEQEND
  8
gg1
  0
POLYLINE
  8
gg1
 62
1
 40
0.000000
 41
0.000000
 66
  1
  0
VERTEX
  8
gg1
 10
1.110000
 20
0.720800
  0
VERTEX
  8
gg1
 10
1.110000
 20
0.748300
  0
SEQEND
  8
gg1
  0
POLYLINE
  8
gg1
 62
1
 40
0.000000
 41
0.000000
 66
  1
  0
VERTEX
  8
gg1
 10
0.646200
 20
0.350400
  0
VERTEX
  8
gg1
 10
0.673800
 20
0.350400
  0
SEQEND
  8
gg1
  0
POLYLINE
  8
gg1
 62
1
 40
0.000000
 41
0.000000
 66
  1
  0
VERTEX
  8
gg1
 10
0.660000
 20
0.336700
  0
VERTEX
  8
gg1
 10
0.660000
 20
0.364200
  0
SEQEND
  8
gg1
  0
POLYLINE
  8
gg1
 62
1
 40
0.000000
 41
0.000000
 66
  1
  0
VERTEX
  8
gg1
 10
0.646200
 20
0.279600
  0
VERTEX
  8
gg1
 10
0.673800
 20
0.279600
  0
SEQEND
  8
gg1
  0
POLYLINE
  8
gg1
 62
1
 40
0.000000
 41
0.000000
 66
  1
  0
VERTEX
  8
gg1
 10
0.660000
 20
0.265800
  0
VERTEX
  8
gg1
 10
0.660000
 20
0.293300
  0
SEQEND
  8
gg1
  0
POLYLINE
  8
gg1
 62
1
 40
0.000000
 41
0.000000
 66
  1
  0
VERTEX
  8
gg1
 10
0.146200
 20
0.350400
  0
VERTEX
  8
gg1
 10
0.173800
 20
0.350400
  0
SEQEND
  8
gg1
  0
POLYLINE
  8
gg1
 62
1
 40
0.000000
 41
0.000000
 66
  1
  0
VERTEX
  8
gg1
 10
0.160000
 20
0.336700
  0
VERTEX
  8
gg1
 10
0.160000
 20
0.364200
  0
SEQEND
  8
gg1
  0
POLYLINE
  8
gg1
 62
1
 40
0.000000
 41
0.000000
 66
  1
  0
VERTEX
  8
gg1
 10
0.146200
 20
0.279600
  0
VERTEX
  8
gg1
 10
0.173800
 20
0.279600
  0
SEQEND
  8
gg1
  0
POLYLINE
  8
gg1
 62
1
 40
0.000000
 41
0.000000
 66
  1
  0
VERTEX
  8
gg1
 10
0.160000
 20
0.265800
  0
VERTEX
  8
gg1
 10
0.160000
 20
0.293300
  0
SEQEND
  8
gg1
  0
POLYLINE
  8
gg1
 62
1
 40
0.000000
 41
0.000000
 66
  1
  0
VERTEX
  8
gg1
 10
-0.398700
 20
0.125000
  0
VERTEX
  8
gg1
 10
-0.363200
 20
0.125000
  0
SEQEND
  8
gg1
  0
POLYLINE
  8
gg1
 62
1
 40
0.000000
 41
0.000000
 66
  1
  0
VERTEX
  8
gg1
 10
-0.380900
 20
0.107300
  0
VERTEX
  8
gg1
 10
-0.380900
 20
0.142700
  0
SEQEND
  8
gg1
  0
POLYLINE
  8
gg1
 62
1
 40
0.000000
 41
0.000000
 66
  1
  0
VERTEX
  8
gg1
 10
-0.516800
 20
0.125000
  0
VERTEX
  8
gg1
 10
-0.481300
 20
0.125000
  0
SEQEND
  8
gg1
  0
POLYLINE
  8
gg1
 62
1
 40
0.000000
 41
0.000000
 66
  1
  0
VERTEX
  8
gg1
 10
-0.499100
 20
0.107300
  0
VERTEX
  8
gg1
 10
-0.499100
 20
0.142700
  0
SEQEND
  8
gg1
  0
POLYLINE
  8
gg1
 62
1
 40
0.000000
 41
0.000000
 66
  1
  0
VERTEX
  8
gg1
 10
-0.172500
 20
1.400000
  0
VERTEX
  8
gg1
 10
-0.157500
 20
1.400000
  0
SEQEND
  8
gg1
  0
POLYLINE
  8
gg1
 62
1
 40
0.000000
 41
0.000000
 66
  1
  0
VERTEX
  8
gg1
 10
-0.165000
 20
1.392500
  0
VERTEX
  8
gg1
 10
-0.165000
 20
1.407500
  0
SEQEND
  8
gg1
  0
POLYLINE
  8
gg1
 62
1
 40
0.000000
 41
0.000000
 66
  1
  0
VERTEX
  8
gg1
 10
0.015000
 20
0.935000
  0
VERTEX
  8
gg1
 10
0.035000
 20
0.935000
  0
SEQEND
  8
gg1
  0
POLYLINE
  8
gg1
 62
1
 40
0.000000
 41
0.000000
 66
  1
  0
VERTEX
  8
gg1
 10
0.025000
 20
0.925000
  0
VERTEX
  8
gg1
 10
0.025000
 20
0.945000
  0
SEQEND
  8
gg1
  0
POLYLINE
  8
gg1
 62
1
 40
0.000000
 41
0.000000
 66
  1
  0
VERTEX
  8
gg1
 10
0.022500
 20
0.980000
  0
VERTEX
  8
gg1
 10
0.037500
 20
0.980000
  0
SEQEND
  8
gg1
  0
POLYLINE
  8
gg1
 62
1
 40
0.000000
 41
0.000000
 66
  1
  0
VERTEX
  8
gg1
 10
0.030000
 20
0.972500
  0
VERTEX
  8
gg1
 10
0.030000
 20
0.987500
  0
SEQEND
  8
gg1
  0
POLYLINE
  8
gg1
 62
1
 40
0.000000
 41
0.000000
 66
  1
  0
VERTEX
  8
gg1
 10
-0.702500
 20
2.615000
  0
VERTEX
  8
gg1
 10
-0.687500
 20
2.615000
  0
SEQEND
  8
gg1
  0
POLYLINE
  8
gg1
 62
1
 40
0.000000
 41
0.000000
 66
  1
  0
VERTEX
  8
gg1
 10
-0.695000
 20
2.607500
  0
VERTEX
  8
gg1
 10
-0.695000
 20
2.622500
  0
SEQEND
  8
gg1
  0
POLYLINE
  8
gg1
 62
1
 40
0.000000
 41
0.000000
 66
  1
  0
VERTEX
  8
gg1
 10
-0.100000
 20
1.700000
  0
VERTEX
  8
gg1
 10
-0.080000
 20
1.700000
  0
SEQEND
  8
gg1
  0
POLYLINE
  8
gg1
 62
1
 40
0.000000
 41
0.000000
 66
  1
  0
VERTEX
  8
gg1
 10
-0.090000
 20
1.690000
  0
VERTEX
  8
gg1
 10
-0.090000
 20
1.710000
  0
SEQEND
  8
gg1
  0
POLYLINE
  8
gg1
 62
1
 40
0.000000
 41
0.000000
 66
  1
  0
VERTEX
  8
gg1
 10
0.077500
 20
1.755000
  0
VERTEX
  8
gg1
 10
0.092500
 20
1.755000
  0
SEQEND
  8
gg1
  0
POLYLINE
  8
gg1
 62
1
 40
0.000000
 41
0.000000
 66
  1
  0
VERTEX
  8
gg1
 10
0.085000
 20
1.747500
  0
VERTEX
  8
gg1
 10
0.085000
 20
1.762500
  0
SEQEND
  8
gg1
  0
POLYLINE
  8
gg1
 62
1
 40
0.000000
 41
0.000000
 66
  1
  0
VERTEX
  8
gg1
 10
-0.172500
 20
1.535000
  0
VERTEX
  8
gg1
 10
-0.157500
 20
1.535000
  0
SEQEND
  8
gg1
  0
POLYLINE
  8
gg1
 62
1
 40
0.000000
 41
0.000000
 66
  1
  0
VERTEX
  8
gg1
 10
-0.165000
 20
1.527500
  0
VERTEX
  8
gg1
 10
-0.165000
 20
1.542500
  0
SEQEND
  8
gg1
  0
POLYLINE
  8
gg1
 62
1
 40
0.000000
 41
0.000000
 66
  1
  0
VERTEX
  8
gg1
 10
0.077500
 20
1.600000
  0
VERTEX
  8
gg1
 10
0.092500
 20
1.600000
  0
SEQEND
  8
gg1
  0
POLYLINE
  8
gg1
 62
1
 40
0.000000
 41
0.000000
 66
  1
  0
VERTEX
  8
gg1
 10
0.085000
 20
1.592500
  0
VERTEX
  8
gg1
 10
0.085000
 20
1.607500
  0
SEQEND
  8
gg1
  0
POLYLINE
  8
gg1
 62
1
 40
0.000000
 41
0.000000
 66
  1
  0
VERTEX
  8
gg1
 10
-0.172500
 20
1.755000
  0
VERTEX
  8
gg1
 10
-0.157500
 20
1.755000
  0
SEQEND
  8
gg1
  0
POLYLINE
  8
gg1
 62
1
 40
0.000000
 41
0.000000
 66
  1
  0
VERTEX
  8
gg1
 10
-0.165000
 20
1.747500
  0
VERTEX
  8
gg1
 10
-0.165000
 20
1.762500
  0
SEQEND
  8
gg1
  0
POLYLINE
  8
gg1
 62
1
 40
0.000000
 41
0.000000
 66
  1
  0
VERTEX
  8
gg1
 10
-0.072500
 20
1.755000
  0
VERTEX
  8
gg1
 10
-0.057500
 20
1.755000
  0
SEQEND
  8
gg1
  0
POLYLINE
  8
gg1
 62
1
 40
0.000000
 41
0.000000
 66
  1
  0
VERTEX
  8
gg1
 10
-0.065000
 20
1.747500
  0
VERTEX
  8
gg1
 10
-0.065000
 20
1.762500
  0
SEQEND
  8
gg1
  0
POLYLINE
  8
gg1
 62
1
 40
0.000000
 41
0.000000
 66
  1
  0
VERTEX
  8
gg1
 10
-0.072500
 20
1.535000
  0
VERTEX
  8
gg1
 10
-0.057500
 20
1.535000
  0
SEQEND
  8
gg1
  0
POLYLINE
  8
gg1
 62
1
 40
0.000000
 41
0.000000
 66
  1
  0
VERTEX
  8
gg1
 10
-0.065000
 20
1.527500
  0
VERTEX
  8
gg1
 10
-0.065000
 20
1.542500
  0
SEQEND
  8
gg1
  0
POLYLINE
  8
gg1
 62
1
 40
0.000000
 41
0.000000
 66
  1
  0
VERTEX
  8
gg1
 10
-0.072500
 20
1.600000
  0
VERTEX
  8
gg1
 10
-0.057500
 20
1.600000
  0
SEQEND
  8
gg1
  0
POLYLINE
  8
gg1
 62
1
 40
0.000000
 41
0.000000
 66
  1
  0
VERTEX
  8
gg1
 10
-0.065000
 20
1.592500
  0
VERTEX
  8
gg1
 10
-0.065000
 20
1.607500
  0
SEQEND
  8
gg1
  0
POLYLINE
  8
gg1
 62
1
 40
0.000000
 41
0.000000
 66
  1
  0
VERTEX
  8
gg1
 10
1.102500
 20
2.110000
  0
VERTEX
  8
gg1
 10
1.117500
 20
2.110000
  0
SEQEND
  8
gg1
  0
POLYLINE
  8
gg1
 62
1
 40
0.000000
 41
0.000000
 66
  1
  0
VERTEX
  8
gg1
 10
1.110000
 20
2.102500
  0
VERTEX
  8
gg1
 10
1.110000
 20
2.117500
  0
SEQEND
  8
gg1
  0
POLYLINE
  8
gg1
 62
1
 40
0.000000
 41
0.000000
 66
  1
  0
VERTEX
  8
gg1
 10
-1.160000
 20
1.210000
  0
VERTEX
  8
gg1
 10
-1.140000
 20
1.210000
  0
SEQEND
  8
gg1
  0
POLYLINE
  8
gg1
 62
1
 40
0.000000
 41
0.000000
 66
  1
  0
VERTEX
  8
gg1
 10
-1.150000
 20
1.200000
  0
VERTEX
  8
gg1
 10
-1.150000
 20
1.220000
  0
SEQEND
  8
gg1
  0
POLYLINE
  8
gg1
 62
1
 40
0.000000
 41
0.000000
 66
  1
  0
VERTEX
  8
gg1
 10
-1.137500
 20
0.665000
  0
VERTEX
  8
gg1
 10
-1.122500
 20
0.665000
  0
SEQEND
  8
gg1
  0
POLYLINE
  8
gg1
 62
1
 40
0.000000
 41
0.000000
 66
  1
  0
VERTEX
  8
gg1
 10
-1.130000
 20
0.657500
  0
VERTEX
  8
gg1
 10
-1.130000
 20
0.672500
  0
SEQEND
  8
gg1
  0
POLYLINE
  8
gg1
 62
1
 40
0.000000
 41
0.000000
 66
  1
  0
VERTEX
  8
gg1
 10
-1.042500
 20
0.665000
  0
VERTEX
  8
gg1
 10
-1.027500
 20
0.665000
  0
SEQEND
  8
gg1
  0
POLYLINE
  8
gg1
 62
1
 40
0.000000
 41
0.000000
 66
  1
  0
VERTEX
  8
gg1
 10
-1.035000
 20
0.657500
  0
VERTEX
  8
gg1
 10
-1.035000
 20
0.672500
  0
SEQEND
  8
gg1
  0
POLYLINE
  8
gg1
 62
1
 40
0.000000
 41
0.000000
 66
  1
  0
VERTEX
  8
gg1
 10
-1.042500
 20
0.870000
  0
VERTEX
  8
gg1
 10
-1.027500
 20
0.870000
  0
SEQEND
  8
gg1
  0
POLYLINE
  8
gg1
 62
1
 40
0.000000
 41
0.000000
 66
  1
  0
VERTEX
  8
gg1
 10
-1.035000
 20
0.862500
  0
VERTEX
  8
gg1
 10
-1.035000
 20
0.877500
  0
SEQEND
  8
gg1
  0
POLYLINE
  8
gg1
 62
1
 40
0.000000
 41
0.000000
 66
  1
  0
VERTEX
  8
gg1
 10
-1.137500
 20
0.870000
  0
VERTEX
  8
gg1
 10
-1.122500
 20
0.870000
  0
SEQEND
  8
gg1
  0
POLYLINE
  8
gg1
 62
1
 40
0.000000
 41
0.000000
 66
  1
  0
VERTEX
  8
gg1
 10
-1.130000
 20
0.862500
  0
VERTEX
  8
gg1
 10
-1.130000
 20
0.877500
  0
SEQEND
  8
gg1
  0
POLYLINE
  8
gg1
 62
1
 40
0.000000
 41
0.000000
 66
  1
  0
VERTEX
  8
gg1
 10
-1.247500
 20
1.160000
  0
VERTEX
  8
gg1
 10
-1.232500
 20
1.160000
  0
SEQEND
  8
gg1
  0
POLYLINE
  8
gg1
 62
1
 40
0.000000
 41
0.000000
 66
  1
  0
VERTEX
  8
gg1
 10
-1.240000
 20
1.152500
  0
VERTEX
  8
gg1
 10
-1.240000
 20
1.167500
  0
SEQEND
  8
gg1
  0
POLYLINE
  8
gg1
 62
1
 40
0.000000
 41
0.000000
 66
  1
  0
VERTEX
  8
gg1
 10
-1.247500
 20
1.355000
  0
VERTEX
  8
gg1
 10
-1.232500
 20
1.355000
  0
SEQEND
  8
gg1
  0
POLYLINE
  8
gg1
 62
1
 40
0.000000
 41
0.000000
 66
  1
  0
VERTEX
  8
gg1
 10
-1.240000
 20
1.347500
  0
VERTEX
  8
gg1
 10
-1.240000
 20
1.362500
  0
SEQEND
  8
gg1
  0
POLYLINE
  8
gg1
 62
1
 40
0.000000
 41
0.000000
 66
  1
  0
VERTEX
  8
gg1
 10
-1.247500
 20
0.965000
  0
VERTEX
  8
gg1
 10
-1.232500
 20
0.965000
  0
SEQEND
  8
gg1
  0
POLYLINE
  8
gg1
 62
1
 40
0.000000
 41
0.000000
 66
  1
  0
VERTEX
  8
gg1
 10
-1.240000
 20
0.957500
  0
VERTEX
  8
gg1
 10
-1.240000
 20
0.972500
  0
SEQEND
  8
gg1
  0
POLYLINE
  8
gg1
 62
1
 40
0.000000
 41
0.000000
 66
  1
  0
VERTEX
  8
gg1
 10
-1.072500
 20
1.155000
  0
VERTEX
  8
gg1
 10
-1.057500
 20
1.155000
  0
SEQEND
  8
gg1
  0
POLYLINE
  8
gg1
 62
1
 40
0.000000
 41
0.000000
 66
  1
  0
VERTEX
  8
gg1
 10
-1.065000
 20
1.147500
  0
VERTEX
  8
gg1
 10
-1.065000
 20
1.162500
  0
SEQEND
  8
gg1
  0
POLYLINE
  8
gg1
 62
1
 40
0.000000
 41
0.000000
 66
  1
  0
VERTEX
  8
gg1
 10
-1.022500
 20
1.210000
  0
VERTEX
  8
gg1
 10
-1.007500
 20
1.210000
  0
SEQEND
  8
gg1
  0
POLYLINE
  8
gg1
 62
1
 40
0.000000
 41
0.000000
 66
  1
  0
VERTEX
  8
gg1
 10
-1.015000
 20
1.202500
  0
VERTEX
  8
gg1
 10
-1.015000
 20
1.217500
  0
SEQEND
  8
gg1
  0
POLYLINE
  8
gg1
 62
1
 40
0.000000
 41
0.000000
 66
  1
  0
VERTEX
  8
gg1
 10
-1.152500
 20
1.340000
  0
VERTEX
  8
gg1
 10
-1.137500
 20
1.340000
  0
SEQEND
  8
gg1
  0
POLYLINE
  8
gg1
 62
1
 40
0.000000
 41
0.000000
 66
  1
  0
VERTEX
  8
gg1
 10
-1.145000
 20
1.332500
  0
VERTEX
  8
gg1
 10
-1.145000
 20
1.347500
  0
SEQEND
  8
gg1
  0
POLYLINE
  8
gg1
 62
1
 40
0.000000
 41
0.000000
 66
  1
  0
VERTEX
  8
gg1
 10
-1.142500
 20
1.780000
  0
VERTEX
  8
gg1
 10
-1.127500
 20
1.780000
  0
SEQEND
  8
gg1
  0
POLYLINE
  8
gg1
 62
1
 40
0.000000
 41
0.000000
 66
  1
  0
VERTEX
  8
gg1
 10
-1.135000
 20
1.772500
  0
VERTEX
  8
gg1
 10
-1.135000
 20
1.787500
  0
SEQEND
  8
gg1
  0
POLYLINE
  8
gg1
 62
1
 40
0.000000
 41
0.000000
 66
  1
  0
VERTEX
  8
gg1
 10
-1.022500
 20
1.845000
  0
VERTEX
  8
gg1
 10
-1.007500
 20
1.845000
  0
SEQEND
  8
gg1
  0
POLYLINE
  8
gg1
 62
1
 40
0.000000
 41
0.000000
 66
  1
  0
VERTEX
  8
gg1
 10
-1.015000
 20
1.837500
  0
VERTEX
  8
gg1
 10
-1.015000
 20
1.852500
  0
SEQEND
  8
gg1
  0
POLYLINE
  8
gg1
 62
1
 40
0.000000
 41
0.000000
 66
  1
  0
VERTEX
  8
gg1
 10
-1.137500
 20
2.295000
  0
VERTEX
  8
gg1
 10
-1.122500
 20
2.295000
  0
SEQEND
  8
gg1
  0
POLYLINE
  8
gg1
 62
1
 40
0.000000
 41
0.000000
 66
  1
  0
VERTEX
  8
gg1
 10
-1.130000
 20
2.287500
  0
VERTEX
  8
gg1
 10
-1.130000
 20
2.302500
  0
SEQEND
  8
gg1
  0
POLYLINE
  8
gg1
 62
1
 40
0.000000
 41
0.000000
 66
  1
  0
VERTEX
  8
gg1
 10
-1.137500
 20
2.210000
  0
VERTEX
  8
gg1
 10
-1.122500
 20
2.210000
  0
SEQEND
  8
gg1
  0
POLYLINE
  8
gg1
 62
1
 40
0.000000
 41
0.000000
 66
  1
  0
VERTEX
  8
gg1
 10
-1.130000
 20
2.202500
  0
VERTEX
  8
gg1
 10
-1.130000
 20
2.217500
  0
SEQEND
  8
gg1
  0
POLYLINE
  8
gg1
 62
1
 40
0.000000
 41
0.000000
 66
  1
  0
VERTEX
  8
gg1
 10
-0.512500
 20
2.275000
  0
VERTEX
  8
gg1
 10
-0.497500
 20
2.275000
  0
SEQEND
  8
gg1
  0
POLYLINE
  8
gg1
 62
1
 40
0.000000
 41
0.000000
 66
  1
  0
VERTEX
  8
gg1
 10
-0.505000
 20
2.267500
  0
VERTEX
  8
gg1
 10
-0.505000
 20
2.282500
  0
SEQEND
  8
gg1
  0
POLYLINE
  8
gg1
 62
1
 40
0.000000
 41
0.000000
 66
  1
  0
VERTEX
  8
gg1
 10
-0.542500
 20
2.275000
  0
VERTEX
  8
gg1
 10
-0.527500
 20
2.275000
  0
SEQEND
  8
gg1
  0
POLYLINE
  8
gg1
 62
1
 40
0.000000
 41
0.000000
 66
  1
  0
VERTEX
  8
gg1
 10
-0.535000
 20
2.267500
  0
VERTEX
  8
gg1
 10
-0.535000
 20
2.282500
  0
SEQEND
  8
gg1
  0
POLYLINE
  8
gg1
 62
1
 40
0.000000
 41
0.000000
 66
  1
  0
VERTEX
  8
gg1
 10
-0.602500
 20
2.275000
  0
VERTEX
  8
gg1
 10
-0.587500
 20
2.275000
  0
SEQEND
  8
gg1
  0
POLYLINE
  8
gg1
 62
1
 40
0.000000
 41
0.000000
 66
  1
  0
VERTEX
  8
gg1
 10
-0.595000
 20
2.267500
  0
VERTEX
  8
gg1
 10
-0.595000
 20
2.282500
  0
SEQEND
  8
gg1
  0
POLYLINE
  8
gg1
 62
1
 40
0.000000
 41
0.000000
 66
  1
  0
VERTEX
  8
gg1
 10
0.105000
 20
2.690000
  0
VERTEX
  8
gg1
 10
0.125000
 20
2.690000
  0
SEQEND
  8
gg1
  0
POLYLINE
  8
gg1
 62
1
 40
0.000000
 41
0.000000
 66
  1
  0
VERTEX
  8
gg1
 10
0.115000
 20
2.680000
  0
VERTEX
  8
gg1
 10
0.115000
 20
2.700000
  0
SEQEND
  8
gg1
  0
POLYLINE
  8
gg1
 62
1
 40
0.000000
 41
0.000000
 66
  1
  0
VERTEX
  8
gg1
 10
-0.210000
 20
2.770000
  0
VERTEX
  8
gg1
 10
-0.190000
 20
2.770000
  0
SEQEND
  8
gg1
  0
POLYLINE
  8
gg1
 62
1
 40
0.000000
 41
0.000000
 66
  1
  0
VERTEX
  8
gg1
 10
-0.200000
 20
2.760000
  0
VERTEX
  8
gg1
 10
-0.200000
 20
2.780000
  0
SEQEND
  8
gg1
  0
POLYLINE
  8
gg1
 62
1
 40
0.000000
 41
0.000000
 66
  1
  0
VERTEX
  8
gg1
 10
0.717500
 20
2.160000
  0
VERTEX
  8
gg1
 10
0.732500
 20
2.160000
  0
SEQEND
  8
gg1
  0
POLYLINE
  8
gg1
 62
1
 40
0.000000
 41
0.000000
 66
  1
  0
VERTEX
  8
gg1
 10
0.725000
 20
2.152500
  0
VERTEX
  8
gg1
 10
0.725000
 20
2.167500
  0
SEQEND
  8
gg1
  0
POLYLINE
  8
gg1
 62
1
 40
0.000000
 41
0.000000
 66
  1
  0
VERTEX
  8
gg1
 10
1.037500
 20
2.695000
  0
VERTEX
  8
gg1
 10
1.052500
 20
2.695000
  0
SEQEND
  8
gg1
  0
POLYLINE
  8
gg1
 62
1
 40
0.000000
 41
0.000000
 66
  1
  0
VERTEX
  8
gg1
 10
1.045000
 20
2.687500
  0
VERTEX
  8
gg1
 10
1.045000
 20
2.702500
  0
SEQEND
  8
gg1
  0
POLYLINE
  8
gg1
 62
1
 40
0.000000
 41
0.000000
 66
  1
  0
VERTEX
  8
gg1
 10
1.162500
 20
2.380000
  0
VERTEX
  8
gg1
 10
1.177500
 20
2.380000
  0
SEQEND
  8
gg1
  0
POLYLINE
  8
gg1
 62
1
 40
0.000000
 41
0.000000
 66
  1
  0
VERTEX
  8
gg1
 10
1.170000
 20
2.372500
  0
VERTEX
  8
gg1
 10
1.170000
 20
2.387500
  0
SEQEND
  8
gg1
  0
POLYLINE
  8
gg1
 62
1
 40
0.000000
 41
0.000000
 66
  1
  0
VERTEX
  8
gg1
 10
-1.257500
 20
3.015000
  0
VERTEX
  8
gg1
 10
-1.242500
 20
3.015000
  0
SEQEND
  8
gg1
  0
POLYLINE
  8
gg1
 62
1
 40
0.000000
 41
0.000000
 66
  1
  0
VERTEX
  8
gg1
 10
-1.250000
 20
3.007500
  0
VERTEX
  8
gg1
 10
-1.250000
 20
3.022500
  0
SEQEND
  8
gg1
  0
POLYLINE
  8
gg1
 62
1
 40
0.000000
 41
0.000000
 66
  1
  0
VERTEX
  8
gg1
 10
0.782500
 20
2.380000
  0
VERTEX
  8
gg1
 10
0.797500
 20
2.380000
  0
SEQEND
  8
gg1
  0
POLYLINE
  8
gg1
 62
1
 40
0.000000
 41
0.000000
 66
  1
  0
VERTEX
  8
gg1
 10
0.790000
 20
2.372500
  0
VERTEX
  8
gg1
 10
0.790000
 20
2.387500
  0
SEQEND
  8
gg1
  0
POLYLINE
  8
gg1
 62
1
 40
0.000000
 41
0.000000
 66
  1
  0
VERTEX
  8
gg1
 10
0.085000
 20
1.485000
  0
VERTEX
  8
gg1
 10
0.105000
 20
1.485000
  0
SEQEND
  8
gg1
  0
POLYLINE
  8
gg1
 62
1
 40
0.000000
 41
0.000000
 66
  1
  0
VERTEX
  8
gg1
 10
0.095000
 20
1.475000
  0
VERTEX
  8
gg1
 10
0.095000
 20
1.495000
  0
SEQEND
  8
gg1
  0
POLYLINE
  8
gg1
 62
1
 40
0.000000
 41
0.000000
 66
  1
  0
VERTEX
  8
gg1
 10
1.107500
 20
2.165000
  0
VERTEX
  8
gg1
 10
1.122500
 20
2.165000
  0
SEQEND
  8
gg1
  0
POLYLINE
  8
gg1
 62
1
 40
0.000000
 41
0.000000
 66
  1
  0
VERTEX
  8
gg1
 10
1.115000
 20
2.157500
  0
VERTEX
  8
gg1
 10
1.115000
 20
2.172500
  0
SEQEND
  8
gg1
  0
POLYLINE
  8
gg1
 62
1
 40
0.000000
 41
0.000000
 66
  1
  0
VERTEX
  8
gg1
 10
1.087500
 20
2.205000
  0
VERTEX
  8
gg1
 10
1.102500
 20
2.205000
  0
SEQEND
  8
gg1
  0
POLYLINE
  8
gg1
 62
1
 40
0.000000
 41
0.000000
 66
  1
  0
VERTEX
  8
gg1
 10
1.095000
 20
2.197500
  0
VERTEX
  8
gg1
 10
1.095000
 20
2.212500
  0
SEQEND
  8
gg1
  0
POLYLINE
  8
gg1
 62
1
 40
0.000000
 41
0.000000
 66
  1
  0
VERTEX
  8
gg1
 10
1.067500
 20
2.240000
  0
VERTEX
  8
gg1
 10
1.082500
 20
2.240000
  0
SEQEND
  8
gg1
  0
POLYLINE
  8
gg1
 62
1
 40
0.000000
 41
0.000000
 66
  1
  0
VERTEX
  8
gg1
 10
1.075000
 20
2.232500
  0
VERTEX
  8
gg1
 10
1.075000
 20
2.247500
  0
SEQEND
  8
gg1
  0
POLYLINE
  8
gg1
 62
1
 40
0.000000
 41
0.000000
 66
  1
  0
VERTEX
  8
gg1
 10
1.242500
 20
1.880000
  0
VERTEX
  8
gg1
 10
1.257500
 20
1.880000
  0
SEQEND
  8
gg1
  0
POLYLINE
  8
gg1
 62
1
 40
0.000000
 41
0.000000
 66
  1
  0
VERTEX
  8
gg1
 10
1.250000
 20
1.872500
  0
VERTEX
  8
gg1
 10
1.250000
 20
1.887500
  0
SEQEND
  8
gg1
  0
POLYLINE
  8
gg1
 62
1
 40
0.000000
 41
0.000000
 66
  1
  0
VERTEX
  8
gg1
 10
1.242500
 20
1.960000
  0
VERTEX
  8
gg1
 10
1.257500
 20
1.960000
  0
SEQEND
  8
gg1
  0
POLYLINE
  8
gg1
 62
1
 40
0.000000
 41
0.000000
 66
  1
  0
VERTEX
  8
gg1
 10
1.250000
 20
1.952500
  0
VERTEX
  8
gg1
 10
1.250000
 20
1.967500
  0
SEQEND
  8
gg1
  0
POLYLINE
  8
gg1
 62
1
 40
0.000000
 41
0.000000
 66
  1
  0
VERTEX
  8
gg1
 10
0.942500
 20
2.170000
  0
VERTEX
  8
gg1
 10
0.957500
 20
2.170000
  0
SEQEND
  8
gg1
  0
POLYLINE
  8
gg1
 62
1
 40
0.000000
 41
0.000000
 66
  1
  0
VERTEX
  8
gg1
 10
0.950000
 20
2.162500
  0
VERTEX
  8
gg1
 10
0.950000
 20
2.177500
  0
SEQEND
  8
gg1
  0
POLYLINE
  8
gg1
 62
1
 40
0.000000
 41
0.000000
 66
  1
  0
VERTEX
  8
gg1
 10
1.007500
 20
2.240000
  0
VERTEX
  8
gg1
 10
1.022500
 20
2.240000
  0
SEQEND
  8
gg1
  0
POLYLINE
  8
gg1
 62
1
 40
0.000000
 41
0.000000
 66
  1
  0
VERTEX
  8
gg1
 10
1.015000
 20
2.232500
  0
VERTEX
  8
gg1
 10
1.015000
 20
2.247500
  0
SEQEND
  8
gg1
  0
POLYLINE
  8
gg1
 62
1
 40
0.000000
 41
0.000000
 66
  1
  0
VERTEX
  8
gg1
 10
1.002500
 20
2.200000
  0
VERTEX
  8
gg1
 10
1.017500
 20
2.200000
  0
SEQEND
  8
gg1
  0
POLYLINE
  8
gg1
 62
1
 40
0.000000
 41
0.000000
 66
  1
  0
VERTEX
  8
gg1
 10
1.010000
 20
2.192500
  0
VERTEX
  8
gg1
 10
1.010000
 20
2.207500
  0
SEQEND
  8
gg1
  0
POLYLINE
  8
gg1
 62
1
 40
0.000000
 41
0.000000
 66
  1
  0
VERTEX
  8
gg1
 10
0.712500
 20
1.975000
  0
VERTEX
  8
gg1
 10
0.727500
 20
1.975000
  0
SEQEND
  8
gg1
  0
POLYLINE
  8
gg1
 62
1
 40
0.000000
 41
0.000000
 66
  1
  0
VERTEX
  8
gg1
 10
0.720000
 20
1.967500
  0
VERTEX
  8
gg1
 10
0.720000
 20
1.982500
  0
SEQEND
  8
gg1
  0
POLYLINE
  8
gg1
 62
1
 40
0.000000
 41
0.000000
 66
  1
  0
VERTEX
  8
gg1
 10
0.582500
 20
1.850000
  0
VERTEX
  8
gg1
 10
0.597500
 20
1.850000
  0
SEQEND
  8
gg1
  0
POLYLINE
  8
gg1
 62
1
 40
0.000000
 41
0.000000
 66
  1
  0
VERTEX
  8
gg1
 10
0.590000
 20
1.842500
  0
VERTEX
  8
gg1
 10
0.590000
 20
1.857500
  0
SEQEND
  8
gg1
  0
POLYLINE
  8
gg1
 62
1
 40
0.000000
 41
0.000000
 66
  1
  0
VERTEX
  8
gg1
 10
0.627500
 20
2.090000
  0
VERTEX
  8
gg1
 10
0.642500
 20
2.090000
  0
SEQEND
  8
gg1
  0
POLYLINE
  8
gg1
 62
1
 40
0.000000
 41
0.000000
 66
  1
  0
VERTEX
  8
gg1
 10
0.635000
 20
2.082500
  0
VERTEX
  8
gg1
 10
0.635000
 20
2.097500
  0
SEQEND
  8
gg1
  0
POLYLINE
  8
gg1
 62
1
 40
0.000000
 41
0.000000
 66
  1
  0
VERTEX
  8
gg1
 10
0.628500
 20
2.215000
  0
VERTEX
  8
gg1
 10
0.643500
 20
2.215000
  0
SEQEND
  8
gg1
  0
POLYLINE
  8
gg1
 62
1
 40
0.000000
 41
0.000000
 66
  1
  0
VERTEX
  8
gg1
 10
0.636000
 20
2.207500
  0
VERTEX
  8
gg1
 10
0.636000
 20
2.222500
  0
SEQEND
  8
gg1
  0
POLYLINE
  8
gg1
 62
1
 40
0.000000
 41
0.000000
 66
  1
  0
VERTEX
  8
gg1
 10
0.292500
 20
2.905000
  0
VERTEX
  8
gg1
 10
0.307500
 20
2.905000
  0
SEQEND
  8
gg1
  0
POLYLINE
  8
gg1
 62
1
 40
0.000000
 41
0.000000
 66
  1
  0
VERTEX
  8
gg1
 10
0.300000
 20
2.897500
  0
VERTEX
  8
gg1
 10
0.300000
 20
2.912500
  0
SEQEND
  8
gg1
  0
POLYLINE
  8
gg1
 62
1
 40
0.000000
 41
0.000000
 66
  1
  0
VERTEX
  8
gg1
 10
0.592500
 20
2.200000
  0
VERTEX
  8
gg1
 10
0.607500
 20
2.200000
  0
SEQEND
  8
gg1
  0
POLYLINE
  8
gg1
 62
1
 40
0.000000
 41
0.000000
 66
  1
  0
VERTEX
  8
gg1
 10
0.600000
 20
2.192500
  0
VERTEX
  8
gg1
 10
0.600000
 20
2.207500
  0
SEQEND
  8
gg1
  0
POLYLINE
  8
gg1
 62
1
 40
0.000000
 41
0.000000
 66
  1
  0
VERTEX
  8
gg1
 10
0.532500
 20
2.200000
  0
VERTEX
  8
gg1
 10
0.547500
 20
2.200000
  0
SEQEND
  8
gg1
  0
POLYLINE
  8
gg1
 62
1
 40
0.000000
 41
0.000000
 66
  1
  0
VERTEX
  8
gg1
 10
0.540000
 20
2.192500
  0
VERTEX
  8
gg1
 10
0.540000
 20
2.207500
  0
SEQEND
  8
gg1
  0
POLYLINE
  8
gg1
 62
1
 40
0.000000
 41
0.000000
 66
  1
  0
VERTEX
  8
gg1
 10
0.502500
 20
2.225000
  0
VERTEX
  8
gg1
 10
0.517500
 20
2.225000
  0
SEQEND
  8
gg1
  0
POLYLINE
  8
gg1
 62
1
 40
0.000000
 41
0.000000
 66
  1
  0
VERTEX
  8
gg1
 10
0.510000
 20
2.217500
  0
VERTEX
  8
gg1
 10
0.510000
 20
2.232500
  0
SEQEND
  8
gg1
  0
POLYLINE
  8
gg1
 62
1
 40
0.000000
 41
0.000000
 66
  1
  0
VERTEX
  8
gg1
 10
0.442500
 20
2.380000
  0
VERTEX
  8
gg1
 10
0.457500
 20
2.380000
  0
SEQEND
  8
gg1
  0
POLYLINE
  8
gg1
 62
1
 40
0.000000
 41
0.000000
 66
  1
  0
VERTEX
  8
gg1
 10
0.450000
 20
2.372500
  0
VERTEX
  8
gg1
 10
0.450000
 20
2.387500
  0
SEQEND
  8
gg1
  0
POLYLINE
  8
gg1
 62
1
 40
0.000000
 41
0.000000
 66
  1
  0
VERTEX
  8
gg1
 10
-0.315000
 20
1.990000
  0
VERTEX
  8
gg1
 10
-0.295000
 20
1.990000
  0
SEQEND
  8
gg1
  0
POLYLINE
  8
gg1
 62
1
 40
0.000000
 41
0.000000
 66
  1
  0
VERTEX
  8
gg1
 10
-0.305000
 20
1.980000
  0
VERTEX
  8
gg1
 10
-0.305000
 20
2.000000
  0
SEQEND
  8
gg1
  0
POLYLINE
  8
gg1
 62
1
 40
0.000000
 41
0.000000
 66
  1
  0
VERTEX
  8
gg1
 10
0.597500
 20
2.380000
  0
VERTEX
  8
gg1
 10
0.612500
 20
2.380000
  0
SEQEND
  8
gg1
  0
POLYLINE
  8
gg1
 62
1
 40
0.000000
 41
0.000000
 66
  1
  0
VERTEX
  8
gg1
 10
0.605000
 20
2.372500
  0
VERTEX
  8
gg1
 10
0.605000
 20
2.387500
  0
SEQEND
  8
gg1
  0
POLYLINE
  8
gg1
 62
1
 40
0.000000
 41
0.000000
 66
  1
  0
VERTEX
  8
gg1
 10
0.662500
 20
1.565000
  0
VERTEX
  8
gg1
 10
0.677500
 20
1.565000
  0
SEQEND
  8
gg1
  0
POLYLINE
  8
gg1
 62
1
 40
0.000000
 41
0.000000
 66
  1
  0
VERTEX
  8
gg1
 10
0.670000
 20
1.557500
  0
VERTEX
  8
gg1
 10
0.670000
 20
1.572500
  0
SEQEND
  8
gg1
  0
POLYLINE
  8
gg1
 62
1
 40
0.000000
 41
0.000000
 66
  1
  0
VERTEX
  8
gg1
 10
0.637500
 20
1.640000
  0
VERTEX
  8
gg1
 10
0.652500
 20
1.640000
  0
SEQEND
  8
gg1
  0
POLYLINE
  8
gg1
 62
1
 40
0.000000
 41
0.000000
 66
  1
  0
VERTEX
  8
gg1
 10
0.645000
 20
1.632500
  0
VERTEX
  8
gg1
 10
0.645000
 20
1.647500
  0
SEQEND
  8
gg1
  0
POLYLINE
  8
gg1
 62
1
 40
0.000000
 41
0.000000
 66
  1
  0
VERTEX
  8
gg1
 10
0.622500
 20
1.560000
  0
VERTEX
  8
gg1
 10
0.637500
 20
1.560000
  0
SEQEND
  8
gg1
  0
POLYLINE
  8
gg1
 62
1
 40
0.000000
 41
0.000000
 66
  1
  0
VERTEX
  8
gg1
 10
0.630000
 20
1.552500
  0
VERTEX
  8
gg1
 10
0.630000
 20
1.567500
  0
SEQEND
  8
gg1
  0
POLYLINE
  8
gg1
 62
1
 40
0.000000
 41
0.000000
 66
  1
  0
VERTEX
  8
gg1
 10
0.417500
 20
1.465000
  0
VERTEX
  8
gg1
 10
0.432500
 20
1.465000
  0
SEQEND
  8
gg1
  0
POLYLINE
  8
gg1
 62
1
 40
0.000000
 41
0.000000
 66
  1
  0
VERTEX
  8
gg1
 10
0.425000
 20
1.457500
  0
VERTEX
  8
gg1
 10
0.425000
 20
1.472500
  0
SEQEND
  8
gg1
  0
POLYLINE
  8
gg1
 62
1
 40
0.000000
 41
0.000000
 66
  1
  0
VERTEX
  8
gg1
 10
0.492500
 20
1.405000
  0
VERTEX
  8
gg1
 10
0.507500
 20
1.405000
  0
SEQEND
  8
gg1
  0
POLYLINE
  8
gg1
 62
1
 40
0.000000
 41
0.000000
 66
  1
  0
VERTEX
  8
gg1
 10
0.500000
 20
1.397500
  0
VERTEX
  8
gg1
 10
0.500000
 20
1.412500
  0
SEQEND
  8
gg1
  0
POLYLINE
  8
gg1
 62
1
 40
0.000000
 41
0.000000
 66
  1
  0
VERTEX
  8
gg1
 10
0.477500
 20
1.530000
  0
VERTEX
  8
gg1
 10
0.492500
 20
1.530000
  0
SEQEND
  8
gg1
  0
POLYLINE
  8
gg1
 62
1
 40
0.000000
 41
0.000000
 66
  1
  0
VERTEX
  8
gg1
 10
0.485000
 20
1.522500
  0
VERTEX
  8
gg1
 10
0.485000
 20
1.537500
  0
SEQEND
  8
gg1
  0
POLYLINE
  8
gg1
 62
1
 40
0.000000
 41
0.000000
 66
  1
  0
VERTEX
  8
gg1
 10
0.337500
 20
1.445000
  0
VERTEX
  8
gg1
 10
0.352500
 20
1.445000
  0
SEQEND
  8
gg1
  0
POLYLINE
  8
gg1
 62
1
 40
0.000000
 41
0.000000
 66
  1
  0
VERTEX
  8
gg1
 10
0.345000
 20
1.437500
  0
VERTEX
  8
gg1
 10
0.345000
 20
1.452500
  0
SEQEND
  8
gg1
  0
POLYLINE
  8
gg1
 62
1
 40
0.000000
 41
0.000000
 66
  1
  0
VERTEX
  8
gg1
 10
-0.632500
 20
1.975000
  0
VERTEX
  8
gg1
 10
-0.617500
 20
1.975000
  0
SEQEND
  8
gg1
  0
POLYLINE
  8
gg1
 62
1
 40
0.000000
 41
0.000000
 66
  1
  0
VERTEX
  8
gg1
 10
-0.625000
 20
1.967500
  0
VERTEX
  8
gg1
 10
-0.625000
 20
1.982500
  0
SEQEND
  8
gg1
  0
POLYLINE
  8
gg1
 62
1
 40
0.000000
 41
0.000000
 66
  1
  0
VERTEX
  8
gg1
 10
0.372500
 20
2.440000
  0
VERTEX
  8
gg1
 10
0.387500
 20
2.440000
  0
SEQEND
  8
gg1
  0
POLYLINE
  8
gg1
 62
1
 40
0.000000
 41
0.000000
 66
  1
  0
VERTEX
  8
gg1
 10
0.380000
 20
2.432500
  0
VERTEX
  8
gg1
 10
0.380000
 20
2.447500
  0
SEQEND
  8
gg1
  0
POLYLINE
  8
gg1
 62
1
 40
0.000000
 41
0.000000
 66
  1
  0
VERTEX
  8
gg1
 10
-0.147500
 20
2.625000
  0
VERTEX
  8
gg1
 10
-0.132500
 20
2.625000
  0
SEQEND
  8
gg1
  0
POLYLINE
  8
gg1
 62
1
 40
0.000000
 41
0.000000
 66
  1
  0
VERTEX
  8
gg1
 10
-0.140000
 20
2.617500
  0
VERTEX
  8
gg1
 10
-0.140000
 20
2.632500
  0
SEQEND
  8
gg1
  0
POLYLINE
  8
gg1
 62
1
 40
0.000000
 41
0.000000
 66
  1
  0
VERTEX
  8
gg1
 10
-0.952500
 20
2.360000
  0
VERTEX
  8
gg1
 10
-0.937500
 20
2.360000
  0
SEQEND
  8
gg1
  0
POLYLINE
  8
gg1
 62
1
 40
0.000000
 41
0.000000
 66
  1
  0
VERTEX
  8
gg1
 10
-0.945000
 20
2.352500
  0
VERTEX
  8
gg1
 10
-0.945000
 20
2.367500
  0
SEQEND
  8
gg1
  0
POLYLINE
  8
gg1
 62
1
 40
0.000000
 41
0.000000
 66
  1
  0
VERTEX
  8
gg1
 10
-0.922500
 20
2.385000
  0
VERTEX
  8
gg1
 10
-0.907500
 20
2.385000
  0
SEQEND
  8
gg1
  0
POLYLINE
  8
gg1
 62
1
 40
0.000000
 41
0.000000
 66
  1
  0
VERTEX
  8
gg1
 10
-0.915000
 20
2.377500
  0
VERTEX
  8
gg1
 10
-0.915000
 20
2.392500
  0
SEQEND
  8
gg1
  0
POLYLINE
  8
gg1
 62
1
 40
0.000000
 41
0.000000
 66
  1
  0
VERTEX
  8
gg1
 10
-0.892500
 20
2.360000
  0
VERTEX
  8
gg1
 10
-0.877500
 20
2.360000
  0
SEQEND
  8
gg1
  0
POLYLINE
  8
gg1
 62
1
 40
0.000000
 41
0.000000
 66
  1
  0
VERTEX
  8
gg1
 10
-0.885000
 20
2.352500
  0
VERTEX
  8
gg1
 10
-0.885000
 20
2.367500
  0
SEQEND
  8
gg1
  0
POLYLINE
  8
gg1
 62
1
 40
0.000000
 41
0.000000
 66
  1
  0
VERTEX
  8
gg1
 10
-0.862500
 20
2.385000
  0
VERTEX
  8
gg1
 10
-0.847500
 20
2.385000
  0
SEQEND
  8
gg1
  0
POLYLINE
  8
gg1
 62
1
 40
0.000000
 41
0.000000
 66
  1
  0
VERTEX
  8
gg1
 10
-0.855000
 20
2.377500
  0
VERTEX
  8
gg1
 10
-0.855000
 20
2.392500
  0
SEQEND
  8
gg1
  0
POLYLINE
  8
gg1
 62
1
 40
0.000000
 41
0.000000
 66
  1
  0
VERTEX
  8
gg1
 10
-0.832500
 20
2.360000
  0
VERTEX
  8
gg1
 10
-0.817500
 20
2.360000
  0
SEQEND
  8
gg1
  0
POLYLINE
  8
gg1
 62
1
 40
0.000000
 41
0.000000
 66
  1
  0
VERTEX
  8
gg1
 10
-0.825000
 20
2.352500
  0
VERTEX
  8
gg1
 10
-0.825000
 20
2.367500
  0
SEQEND
  8
gg1
  0
POLYLINE
  8
gg1
 62
1
 40
0.000000
 41
0.000000
 66
  1
  0
VERTEX
  8
gg1
 10
-0.802500
 20
2.385000
  0
VERTEX
  8
gg1
 10
-0.787500
 20
2.385000
  0
SEQEND
  8
gg1
  0
POLYLINE
  8
gg1
 62
1
 40
0.000000
 41
0.000000
 66
  1
  0
VERTEX
  8
gg1
 10
-0.795000
 20
2.377500
  0
VERTEX
  8
gg1
 10
-0.795000
 20
2.392500
  0
SEQEND
  8
gg1
  0
POLYLINE
  8
gg1
 62
1
 40
0.000000
 41
0.000000
 66
  1
  0
VERTEX
  8
gg1
 10
-0.772500
 20
2.360000
  0
VERTEX
  8
gg1
 10
-0.757500
 20
2.360000
  0
SEQEND
  8
gg1
  0
POLYLINE
  8
gg1
 62
1
 40
0.000000
 41
0.000000
 66
  1
  0
VERTEX
  8
gg1
 10
-0.765000
 20
2.352500
  0
VERTEX
  8
gg1
 10
-0.765000
 20
2.367500
  0
SEQEND
  8
gg1
  0
POLYLINE
  8
gg1
 62
1
 40
0.000000
 41
0.000000
 66
  1
  0
VERTEX
  8
gg1
 10
-0.742500
 20
2.385000
  0
VERTEX
  8
gg1
 10
-0.727500
 20
2.385000
  0
SEQEND
  8
gg1
  0
POLYLINE
  8
gg1
 62
1
 40
0.000000
 41
0.000000
 66
  1
  0
VERTEX
  8
gg1
 10
-0.735000
 20
2.377500
  0
VERTEX
  8
gg1
 10
-0.735000
 20
2.392500
  0
SEQEND
  8
gg1
  0
POLYLINE
  8
gg1
 62
1
 40
0.000000
 41
0.000000
 66
  1
  0
VERTEX
  8
gg1
 10
-0.757500
 20
1.705000
  0
VERTEX
  8
gg1
 10
-0.742500
 20
1.705000
  0
SEQEND
  8
gg1
  0
POLYLINE
  8
gg1
 62
1
 40
0.000000
 41
0.000000
 66
  1
  0
VERTEX
  8
gg1
 10
-0.750000
 20
1.697500
  0
VERTEX
  8
gg1
 10
-0.750000
 20
1.712500
  0
SEQEND
  8
gg1
  0
POLYLINE
  8
gg1
 62
1
 40
0.000000
 41
0.000000
 66
  1
  0
VERTEX
  8
gg1
 10
-0.717500
 20
3.125000
  0
VERTEX
  8
gg1
 10
-0.702500
 20
3.125000
  0
SEQEND
  8
gg1
  0
POLYLINE
  8
gg1
 62
1
 40
0.000000
 41
0.000000
 66
  1
  0
VERTEX
  8
gg1
 10
-0.710000
 20
3.117500
  0
VERTEX
  8
gg1
 10
-0.710000
 20
3.132500
  0
SEQEND
  8
gg1
  0
POLYLINE
  8
gg1
 62
1
 40
0.000000
 41
0.000000
 66
  1
  0
VERTEX
  8
gg1
 10
-0.657500
 20
3.110000
  0
VERTEX
  8
gg1
 10
-0.642500
 20
3.110000
  0
SEQEND
  8
gg1
  0
POLYLINE
  8
gg1
 62
1
 40
0.000000
 41
0.000000
 66
  1
  0
VERTEX
  8
gg1
 10
-0.650000
 20
3.102500
  0
VERTEX
  8
gg1
 10
-0.650000
 20
3.117500
  0
SEQEND
  8
gg1
  0
POLYLINE
  8
gg1
 62
1
 40
0.000000
 41
0.000000
 66
  1
  0
VERTEX
  8
gg1
 10
-0.622500
 20
2.935000
  0
VERTEX
  8
gg1
 10
-0.607500
 20
2.935000
  0
SEQEND
  8
gg1
  0
POLYLINE
  8
gg1
 62
1
 40
0.000000
 41
0.000000
 66
  1
  0
VERTEX
  8
gg1
 10
-0.615000
 20
2.927500
  0
VERTEX
  8
gg1
 10
-0.615000
 20
2.942500
  0
SEQEND
  8
gg1
  0
POLYLINE
  8
gg1
 62
1
 40
0.000000
 41
0.000000
 66
  1
  0
VERTEX
  8
gg1
 10
-0.642500
 20
2.970000
  0
VERTEX
  8
gg1
 10
-0.627500
 20
2.970000
  0
SEQEND
  8
gg1
  0
POLYLINE
  8
gg1
 62
1
 40
0.000000
 41
0.000000
 66
  1
  0
VERTEX
  8
gg1
 10
-0.635000
 20
2.962500
  0
VERTEX
  8
gg1
 10
-0.635000
 20
2.977500
  0
SEQEND
  8
gg1
  0
POLYLINE
  8
gg1
 62
1
 40
0.000000
 41
0.000000
 66
  1
  0
VERTEX
  8
gg1
 10
0.562500
 20
2.225000
  0
VERTEX
  8
gg1
 10
0.577500
 20
2.225000
  0
SEQEND
  8
gg1
  0
POLYLINE
  8
gg1
 62
1
 40
0.000000
 41
0.000000
 66
  1
  0
VERTEX
  8
gg1
 10
0.570000
 20
2.217500
  0
VERTEX
  8
gg1
 10
0.570000
 20
2.232500
  0
SEQEND
  8
gg1
  0
POLYLINE
  8
gg1
 62
1
 40
0.000000
 41
0.000000
 66
  1
  0
VERTEX
  8
gg1
 10
0.658500
 20
2.190000
  0
VERTEX
  8
gg1
 10
0.673500
 20
2.190000
  0
SEQEND
  8
gg1
  0
POLYLINE
  8
gg1
 62
1
 40
0.000000
 41
0.000000
 66
  1
  0
VERTEX
  8
gg1
 10
0.666000
 20
2.182500
  0
VERTEX
  8
gg1
 10
0.666000
 20
2.197500
  0
SEQEND
  8
gg1
  0
POLYLINE
  8
gg1
 62
1
 40
0.000000
 41
0.000000
 66
  1
  0
VERTEX
  8
gg1
 10
0.607500
 20
2.965000
  0
VERTEX
  8
gg1
 10
0.622500
 20
2.965000
  0
SEQEND
  8
gg1
  0
POLYLINE
  8
gg1
 62
1
 40
0.000000
 41
0.000000
 66
  1
  0
VERTEX
  8
gg1
 10
0.615000
 20
2.957500
  0
VERTEX
  8
gg1
 10
0.615000
 20
2.972500
  0
SEQEND
  8
gg1
  0
POLYLINE
  8
gg1
 62
1
 40
0.000000
 41
0.000000
 66
  1
  0
VERTEX
  8
gg1
 10
0.742500
 20
3.020000
  0
VERTEX
  8
gg1
 10
0.757500
 20
3.020000
  0
SEQEND
  8
gg1
  0
POLYLINE
  8
gg1
 62
1
 40
0.000000
 41
0.000000
 66
  1
  0
VERTEX
  8
gg1
 10
0.750000
 20
3.012500
  0
VERTEX
  8
gg1
 10
0.750000
 20
3.027500
  0
SEQEND
  8
gg1
  0
POLYLINE
  8
gg1
 62
1
 40
0.000000
 41
0.000000
 66
  1
  0
VERTEX
  8
gg1
 10
0.392500
 20
2.970000
  0
VERTEX
  8
gg1
 10
0.407500
 20
2.970000
  0
SEQEND
  8
gg1
  0
POLYLINE
  8
gg1
 62
1
 40
0.000000
 41
0.000000
 66
  1
  0
VERTEX
  8
gg1
 10
0.400000
 20
2.962500
  0
VERTEX
  8
gg1
 10
0.400000
 20
2.977500
  0
SEQEND
  8
gg1
  0
POLYLINE
  8
gg1
 62
1
 40
0.000000
 41
0.000000
 66
  1
  0
VERTEX
  8
gg1
 10
0.122500
 20
1.335000
  0
VERTEX
  8
gg1
 10
0.137500
 20
1.335000
  0
SEQEND
  8
gg1
  0
POLYLINE
  8
gg1
 62
1
 40
0.000000
 41
0.000000
 66
  1
  0
VERTEX
  8
gg1
 10
0.130000
 20
1.327500
  0
VERTEX
  8
gg1
 10
0.130000
 20
1.342500
  0
SEQEND
  8
gg1
  0
POLYLINE
  8
gg1
 62
1
 40
0.000000
 41
0.000000
 66
  1
  0
VERTEX
  8
gg1
 10
0.147500
 20
1.305000
  0
VERTEX
  8
gg1
 10
0.162500
 20
1.305000
  0
SEQEND
  8
gg1
  0
POLYLINE
  8
gg1
 62
1
 40
0.000000
 41
0.000000
 66
  1
  0
VERTEX
  8
gg1
 10
0.155000
 20
1.297500
  0
VERTEX
  8
gg1
 10
0.155000
 20
1.312500
  0
SEQEND
  8
gg1
  0
POLYLINE
  8
gg1
 62
1
 40
0.000000
 41
0.000000
 66
  1
  0
VERTEX
  8
gg1
 10
0.077500
 20
1.135000
  0
VERTEX
  8
gg1
 10
0.092500
 20
1.135000
  0
SEQEND
  8
gg1
  0
POLYLINE
  8
gg1
 62
1
 40
0.000000
 41
0.000000
 66
  1
  0
VERTEX
  8
gg1
 10
0.085000
 20
1.127500
  0
VERTEX
  8
gg1
 10
0.085000
 20
1.142500
  0
SEQEND
  8
gg1
  0
POLYLINE
  8
gg1
 62
1
 40
0.000000
 41
0.000000
 66
  1
  0
VERTEX
  8
gg1
 10
0.392500
 20
3.160000
  0
VERTEX
  8
gg1
 10
0.407500
 20
3.160000
  0
SEQEND
  8
gg1
  0
POLYLINE
  8
gg1
 62
1
 40
0.000000
 41
0.000000
 66
  1
  0
VERTEX
  8
gg1
 10
0.400000
 20
3.152500
  0
VERTEX
  8
gg1
 10
0.400000
 20
3.167500
  0
SEQEND
  8
gg1
  0
POLYLINE
  8
gg1
 62
1
 40
0.000000
 41
0.000000
 66
  1
  0
VERTEX
  8
gg1
 10
-0.187500
 20
2.955000
  0
VERTEX
  8
gg1
 10
-0.172500
 20
2.955000
  0
SEQEND
  8
gg1
  0
POLYLINE
  8
gg1
 62
1
 40
0.000000
 41
0.000000
 66
  1
  0
VERTEX
  8
gg1
 10
-0.180000
 20
2.947500
  0
VERTEX
  8
gg1
 10
-0.180000
 20
2.962500
  0
SEQEND
  8
gg1
  0
POLYLINE
  8
gg1
 62
1
 40
0.000000
 41
0.000000
 66
  1
  0
VERTEX
  8
gg1
 10
-0.277500
 20
2.930000
  0
VERTEX
  8
gg1
 10
-0.262500
 20
2.930000
  0
SEQEND
  8
gg1
  0
POLYLINE
  8
gg1
 62
1
 40
0.000000
 41
0.000000
 66
  1
  0
VERTEX
  8
gg1
 10
-0.270000
 20
2.922500
  0
VERTEX
  8
gg1
 10
-0.270000
 20
2.937500
  0
SEQEND
  8
gg1
  0
POLYLINE
  8
gg1
 62
1
 40
0.000000
 41
0.000000
 66
  1
  0
VERTEX
  8
gg1
 10
0.617500
 20
3.060000
  0
VERTEX
  8
gg1
 10
0.632500
 20
3.060000
  0
SEQEND
  8
gg1
  0
POLYLINE
  8
gg1
 62
1
 40
0.000000
 41
0.000000
 66
  1
  0
VERTEX
  8
gg1
 10
0.625000
 20
3.052500
  0
VERTEX
  8
gg1
 10
0.625000
 20
3.067500
  0
SEQEND
  8
gg1
  0
POLYLINE
  8
gg1
 62
1
 40
0.000000
 41
0.000000
 66
  1
  0
VERTEX
  8
gg1
 10
-0.142500
 20
2.945000
  0
VERTEX
  8
gg1
 10
-0.127500
 20
2.945000
  0
SEQEND
  8
gg1
  0
POLYLINE
  8
gg1
 62
1
 40
0.000000
 41
0.000000
 66
  1
  0
VERTEX
  8
gg1
 10
-0.135000
 20
2.937500
  0
VERTEX
  8
gg1
 10
-0.135000
 20
2.952500
  0
SEQEND
  8
gg1
  0
POLYLINE
  8
gg1
 62
1
 40
0.000000
 41
0.000000
 66
  1
  0
VERTEX
  8
gg1
 10
0.327500
 20
1.225000
  0
VERTEX
  8
gg1
 10
0.342500
 20
1.225000
  0
SEQEND
  8
gg1
  0
POLYLINE
  8
gg1
 62
1
 40
0.000000
 41
0.000000
 66
  1
  0
VERTEX
  8
gg1
 10
0.335000
 20
1.217500
  0
VERTEX
  8
gg1
 10
0.335000
 20
1.232500
  0
SEQEND
  8
gg1
  0
POLYLINE
  8
gg1
 62
1
 40
0.000000
 41
0.000000
 66
  1
  0
VERTEX
  8
gg1
 10
0.327500
 20
1.265000
  0
VERTEX
  8
gg1
 10
0.342500
 20
1.265000
  0
SEQEND
  8
gg1
  0
POLYLINE
  8
gg1
 62
1
 40
0.000000
 41
0.000000
 66
  1
  0
VERTEX
  8
gg1
 10
0.335000
 20
1.257500
  0
VERTEX
  8
gg1
 10
0.335000
 20
1.272500
  0
SEQEND
  8
gg1
  0
POLYLINE
  8
gg1
 62
1
 40
0.000000
 41
0.000000
 66
  1
  0
VERTEX
  8
gg1
 10
0.622500
 20
3.100000
  0
VERTEX
  8
gg1
 10
0.637500
 20
3.100000
  0
SEQEND
  8
gg1
  0
POLYLINE
  8
gg1
 62
1
 40
0.000000
 41
0.000000
 66
  1
  0
VERTEX
  8
gg1
 10
0.630000
 20
3.092500
  0
VERTEX
  8
gg1
 10
0.630000
 20
3.107500
  0
SEQEND
  8
gg1
  0
POLYLINE
  8
gg1
 62
1
 40
0.000000
 41
0.000000
 66
  1
  0
VERTEX
  8
gg1
 10
-0.102500
 20
2.950000
  0
VERTEX
  8
gg1
 10
-0.087500
 20
2.950000
  0
SEQEND
  8
gg1
  0
POLYLINE
  8
gg1
 62
1
 40
0.000000
 41
0.000000
 66
  1
  0
VERTEX
  8
gg1
 10
-0.095000
 20
2.942500
  0
VERTEX
  8
gg1
 10
-0.095000
 20
2.957500
  0
SEQEND
  8
gg1
  0
POLYLINE
  8
gg1
 62
1
 40
0.000000
 41
0.000000
 66
  1
  0
VERTEX
  8
gg1
 10
-0.005000
 20
2.645000
  0
VERTEX
  8
gg1
 10
0.015000
 20
2.645000
  0
SEQEND
  8
gg1
  0
POLYLINE
  8
gg1
 62
1
 40
0.000000
 41
0.000000
 66
  1
  0
VERTEX
  8
gg1
 10
0.005000
 20
2.635000
  0
VERTEX
  8
gg1
 10
0.005000
 20
2.655000
  0
SEQEND
  8
gg1
  0
POLYLINE
  8
gg1
 62
1
 40
0.000000
 41
0.000000
 66
  1
  0
VERTEX
  8
gg1
 10
0.092500
 20
2.620000
  0
VERTEX
  8
gg1
 10
0.107500
 20
2.620000
  0
SEQEND
  8
gg1
  0
POLYLINE
  8
gg1
 62
1
 40
0.000000
 41
0.000000
 66
  1
  0
VERTEX
  8
gg1
 10
0.100000
 20
2.612500
  0
VERTEX
  8
gg1
 10
0.100000
 20
2.627500
  0
SEQEND
  8
gg1
  0
POLYLINE
  8
gg1
 62
1
 40
0.000000
 41
0.000000
 66
  1
  0
VERTEX
  8
gg1
 10
-0.662500
 20
2.285000
  0
VERTEX
  8
gg1
 10
-0.647500
 20
2.285000
  0
SEQEND
  8
gg1
  0
POLYLINE
  8
gg1
 62
1
 40
0.000000
 41
0.000000
 66
  1
  0
VERTEX
  8
gg1
 10
-0.655000
 20
2.277500
  0
VERTEX
  8
gg1
 10
-0.655000
 20
2.292500
  0
SEQEND
  8
gg1
  0
POLYLINE
  8
gg1
 62
1
 40
0.000000
 41
0.000000
 66
  1
  0
VERTEX
  8
gg1
 10
-0.607500
 20
1.305000
  0
VERTEX
  8
gg1
 10
-0.592500
 20
1.305000
  0
SEQEND
  8
gg1
  0
POLYLINE
  8
gg1
 62
1
 40
0.000000
 41
0.000000
 66
  1
  0
VERTEX
  8
gg1
 10
-0.600000
 20
1.297500
  0
VERTEX
  8
gg1
 10
-0.600000
 20
1.312500
  0
SEQEND
  8
gg1
  0
POLYLINE
  8
gg1
 62
1
 40
0.000000
 41
0.000000
 66
  1
  0
VERTEX
  8
gg1
 10
-1.077500
 20
2.150000
  0
VERTEX
  8
gg1
 10
-1.062500
 20
2.150000
  0
SEQEND
  8
gg1
  0
POLYLINE
  8
gg1
 62
1
 40
0.000000
 41
0.000000
 66
  1
  0
VERTEX
  8
gg1
 10
-1.070000
 20
2.142500
  0
VERTEX
  8
gg1
 10
-1.070000
 20
2.157500
  0
SEQEND
  8
gg1
  0
POLYLINE
  8
gg1
 62
1
 40
0.000000
 41
0.000000
 66
  1
  0
VERTEX
  8
gg1
 10
-0.782500
 20
1.675000
  0
VERTEX
  8
gg1
 10
-0.767500
 20
1.675000
  0
SEQEND
  8
gg1
  0
POLYLINE
  8
gg1
 62
1
 40
0.000000
 41
0.000000
 66
  1
  0
VERTEX
  8
gg1
 10
-0.775000
 20
1.667500
  0
VERTEX
  8
gg1
 10
-0.775000
 20
1.682500
  0
SEQEND
  8
gg1
  0
POLYLINE
  8
gg1
 62
1
 40
0.000000
 41
0.000000
 66
  1
  0
VERTEX
  8
gg1
 10
-0.572500
 20
2.275000
  0
VERTEX
  8
gg1
 10
-0.557500
 20
2.275000
  0
SEQEND
  8
gg1
  0
POLYLINE
  8
gg1
 62
1
 40
0.000000
 41
0.000000
 66
  1
  0
VERTEX
  8
gg1
 10
-0.565000
 20
2.267500
  0
VERTEX
  8
gg1
 10
-0.565000
 20
2.282500
  0
SEQEND
  8
gg1
  0
POLYLINE
  8
gg1
 62
1
 40
0.000000
 41
0.000000
 66
  1
  0
VERTEX
  8
gg1
 10
-0.027500
 20
0.875000
  0
VERTEX
  8
gg1
 10
-0.012500
 20
0.875000
  0
SEQEND
  8
gg1
  0
POLYLINE
  8
gg1
 62
1
 40
0.000000
 41
0.000000
 66
  1
  0
VERTEX
  8
gg1
 10
-0.020000
 20
0.867500
  0
VERTEX
  8
gg1
 10
-0.020000
 20
0.882500
  0
SEQEND
  8
gg1
  0
POLYLINE
  8
gg1
 62
1
 40
0.000000
 41
0.000000
 66
  1
  0
VERTEX
  8
gg1
 10
0.272500
 20
2.685000
  0
VERTEX
  8
gg1
 10
0.287500
 20
2.685000
  0
SEQEND
  8
gg1
  0
POLYLINE
  8
gg1
 62
1
 40
0.000000
 41
0.000000
 66
  1
  0
VERTEX
  8
gg1
 10
0.280000
 20
2.677500
  0
VERTEX
  8
gg1
 10
0.280000
 20
2.692500
  0
SEQEND
  8
gg1
  0
POLYLINE
  8
gg1
 62
1
 40
0.000000
 41
0.000000
 66
  1
  0
VERTEX
  8
gg1
 10
0.302500
 20
2.660000
  0
VERTEX
  8
gg1
 10
0.317500
 20
2.660000
  0
SEQEND
  8
gg1
  0
POLYLINE
  8
gg1
 62
1
 40
0.000000
 41
0.000000
 66
  1
  0
VERTEX
  8
gg1
 10
0.310000
 20
2.652500
  0
VERTEX
  8
gg1
 10
0.310000
 20
2.667500
  0
SEQEND
  8
gg1
  0
POLYLINE
  8
gg1
 62
1
 40
0.000000
 41
0.000000
 66
  1
  0
VERTEX
  8
gg1
 10
-0.317500
 20
2.600000
  0
VERTEX
  8
gg1
 10
-0.302500
 20
2.600000
  0
SEQEND
  8
gg1
  0
POLYLINE
  8
gg1
 62
1
 40
0.000000
 41
0.000000
 66
  1
  0
VERTEX
  8
gg1
 10
-0.310000
 20
2.592500
  0
VERTEX
  8
gg1
 10
-0.310000
 20
2.607500
  0
SEQEND
  8
gg1
  0
POLYLINE
  8
gg1
 62
1
 40
0.000000
 41
0.000000
 66
  1
  0
VERTEX
  8
gg1
 10
-0.287500
 20
2.625000
  0
VERTEX
  8
gg1
 10
-0.272500
 20
2.625000
  0
SEQEND
  8
gg1
  0
POLYLINE
  8
gg1
 62
1
 40
0.000000
 41
0.000000
 66
  1
  0
VERTEX
  8
gg1
 10
-0.280000
 20
2.617500
  0
VERTEX
  8
gg1
 10
-0.280000
 20
2.632500
  0
SEQEND
  8
gg1
  0
POLYLINE
  8
gg1
 62
1
 40
0.000000
 41
0.000000
 66
  1
  0
VERTEX
  8
gg1
 10
0.592500
 20
1.235000
  0
VERTEX
  8
gg1
 10
0.607500
 20
1.235000
  0
SEQEND
  8
gg1
  0
POLYLINE
  8
gg1
 62
1
 40
0.000000
 41
0.000000
 66
  1
  0
VERTEX
  8
gg1
 10
0.600000
 20
1.227500
  0
VERTEX
  8
gg1
 10
0.600000
 20
1.242500
  0
SEQEND
  8
gg1
  0
POLYLINE
  8
gg1
 62
1
 40
0.000000
 41
0.000000
 66
  1
  0
VERTEX
  8
gg1
 10
0.622500
 20
1.205000
  0
VERTEX
  8
gg1
 10
0.637500
 20
1.205000
  0
SEQEND
  8
gg1
  0
POLYLINE
  8
gg1
 62
1
 40
0.000000
 41
0.000000
 66
  1
  0
VERTEX
  8
gg1
 10
0.630000
 20
1.197500
  0
VERTEX
  8
gg1
 10
0.630000
 20
1.212500
  0
SEQEND
  8
gg1
  0
POLYLINE
  8
gg1
 62
1
 40
0.000000
 41
0.000000
 66
  1
  0
VERTEX
  8
gg1
 10
1.022500
 20
0.735000
  0
VERTEX
  8
gg1
 10
1.037500
 20
0.735000
  0
SEQEND
  8
gg1
  0
POLYLINE
  8
gg1
 62
1
 40
0.000000
 41
0.000000
 66
  1
  0
VERTEX
  8
gg1
 10
1.030000
 20
0.727500
  0
VERTEX
  8
gg1
 10
1.030000
 20
0.742500
  0
SEQEND
  8
gg1
  0
POLYLINE
  8
gg1
 62
1
 40
0.000000
 41
0.000000
 66
  1
  0
VERTEX
  8
gg1
 10
0.942500
 20
0.600000
  0
VERTEX
  8
gg1
 10
0.957500
 20
0.600000
  0
SEQEND
  8
gg1
  0
POLYLINE
  8
gg1
 62
1
 40
0.000000
 41
0.000000
 66
  1
  0
VERTEX
  8
gg1
 10
0.950000
 20
0.592500
  0
VERTEX
  8
gg1
 10
0.950000
 20
0.607500
  0
SEQEND
  8
gg1
  0
POLYLINE
  8
gg1
 62
1
 40
0.000000
 41
0.000000
 66
  1
  0
VERTEX
  8
gg1
 10
0.762500
 20
0.590000
  0
VERTEX
  8
gg1
 10
0.777500
 20
0.590000
  0
SEQEND
  8
gg1
  0
POLYLINE
  8
gg1
 62
1
 40
0.000000
 41
0.000000
 66
  1
  0
VERTEX
  8
gg1
 10
0.770000
 20
0.582500
  0
VERTEX
  8
gg1
 10
0.770000
 20
0.597500
  0
SEQEND
  8
gg1
  0
POLYLINE
  8
gg1
 62
1
 40
0.000000
 41
0.000000
 66
  1
  0
VERTEX
  8
gg1
 10
0.672500
 20
0.605000
  0
VERTEX
  8
gg1
 10
0.687500
 20
0.605000
  0
SEQEND
  8
gg1
  0
POLYLINE
  8
gg1
 62
1
 40
0.000000
 41
0.000000
 66
  1
  0
VERTEX
  8
gg1
 10
0.680000
 20
0.597500
  0
VERTEX
  8
gg1
 10
0.680000
 20
0.612500
  0
SEQEND
  8
gg1
  0
POLYLINE
  8
gg1
 62
1
 40
0.000000
 41
0.000000
 66
  1
  0
VERTEX
  8
gg1
 10
0.452500
 20
0.545000
  0
VERTEX
  8
gg1
 10
0.467500
 20
0.545000
  0
SEQEND
  8
gg1
  0
POLYLINE
  8
gg1
 62
1
 40
0.000000
 41
0.000000
 66
  1
  0
VERTEX
  8
gg1
 10
0.460000
 20
0.537500
  0
VERTEX
  8
gg1
 10
0.460000
 20
0.552500
  0
SEQEND
  8
gg1
  0
POLYLINE
  8
gg1
 62
1
 40
0.000000
 41
0.000000
 66
  1
  0
VERTEX
  8
gg1
 10
0.577500
 20
0.745000
  0
VERTEX
  8
gg1
 10
0.592500
 20
0.745000
  0
SEQEND
  8
gg1
  0
POLYLINE
  8
gg1
 62
1
 40
0.000000
 41
0.000000
 66
  1
  0
VERTEX
  8
gg1
 10
0.585000
 20
0.737500
  0
VERTEX
  8
gg1
 10
0.585000
 20
0.752500
  0
SEQEND
  8
gg1
  0
POLYLINE
  8
gg1
 62
1
 40
0.000000
 41
0.000000
 66
  1
  0
VERTEX
  8
gg1
 10
0.812500
 20
0.670000
  0
VERTEX
  8
gg1
 10
0.827500
 20
0.670000
  0
SEQEND
  8
gg1
  0
POLYLINE
  8
gg1
 62
1
 40
0.000000
 41
0.000000
 66
  1
  0
VERTEX
  8
gg1
 10
0.820000
 20
0.662500
  0
VERTEX
  8
gg1
 10
0.820000
 20
0.677500
  0
SEQEND
  8
gg1
  0
POLYLINE
  8
gg1
 62
1
 40
0.000000
 41
0.000000
 66
  1
  0
VERTEX
  8
gg1
 10
0.577500
 20
0.805000
  0
VERTEX
  8
gg1
 10
0.592500
 20
0.805000
  0
SEQEND
  8
gg1
  0
POLYLINE
  8
gg1
 62
1
 40
0.000000
 41
0.000000
 66
  1
  0
VERTEX
  8
gg1
 10
0.585000
 20
0.797500
  0
VERTEX
  8
gg1
 10
0.585000
 20
0.812500
  0
SEQEND
  8
gg1
  0
POLYLINE
  8
gg1
 62
1
 40
0.000000
 41
0.000000
 66
  1
  0
VERTEX
  8
gg1
 10
0.447500
 20
0.460000
  0
VERTEX
  8
gg1
 10
0.462500
 20
0.460000
  0
SEQEND
  8
gg1
  0
POLYLINE
  8
gg1
 62
1
 40
0.000000
 41
0.000000
 66
  1
  0
VERTEX
  8
gg1
 10
0.455000
 20
0.452500
  0
VERTEX
  8
gg1
 10
0.455000
 20
0.467500
  0
SEQEND
  8
gg1
  0
POLYLINE
  8
gg1
 62
1
 40
0.000000
 41
0.000000
 66
  1
  0
VERTEX
  8
gg1
 10
0.387500
 20
0.500000
  0
VERTEX
  8
gg1
 10
0.402500
 20
0.500000
  0
SEQEND
  8
gg1
  0
POLYLINE
  8
gg1
 62
1
 40
0.000000
 41
0.000000
 66
  1
  0
VERTEX
  8
gg1
 10
0.395000
 20
0.492500
  0
VERTEX
  8
gg1
 10
0.395000
 20
0.507500
  0
SEQEND
  8
gg1
  0
POLYLINE
  8
gg1
 62
1
 40
0.000000
 41
0.000000
 66
  1
  0
VERTEX
  8
gg1
 10
0.232500
 20
0.450000
  0
VERTEX
  8
gg1
 10
0.247500
 20
0.450000
  0
SEQEND
  8
gg1
  0
POLYLINE
  8
gg1
 62
1
 40
0.000000
 41
0.000000
 66
  1
  0
VERTEX
  8
gg1
 10
0.240000
 20
0.442500
  0
VERTEX
  8
gg1
 10
0.240000
 20
0.457500
  0
SEQEND
  8
gg1
  0
POLYLINE
  8
gg1
 62
1
 40
0.000000
 41
0.000000
 66
  1
  0
VERTEX
  8
gg1
 10
0.427500
 20
0.585000
  0
VERTEX
  8
gg1
 10
0.442500
 20
0.585000
  0
SEQEND
  8
gg1
  0
POLYLINE
  8
gg1
 62
1
 40
0.000000
 41
0.000000
 66
  1
  0
VERTEX
  8
gg1
 10
0.435000
 20
0.577500
  0
VERTEX
  8
gg1
 10
0.435000
 20
0.592500
  0
SEQEND
  8
gg1
  0
POLYLINE
  8
gg1
 62
1
 40
0.000000
 41
0.000000
 66
  1
  0
VERTEX
  8
gg1
 10
0.467500
 20
0.605000
  0
VERTEX
  8
gg1
 10
0.482500
 20
0.605000
  0
SEQEND
  8
gg1
  0
POLYLINE
  8
gg1
 62
1
 40
0.000000
 41
0.000000
 66
  1
  0
VERTEX
  8
gg1
 10
0.475000
 20
0.597500
  0
VERTEX
  8
gg1
 10
0.475000
 20
0.612500
  0
SEQEND
  8
gg1
  0
POLYLINE
  8
gg1
 62
1
 40
0.000000
 41
0.000000
 66
  1
  0
VERTEX
  8
gg1
 10
0.457500
 20
0.645000
  0
VERTEX
  8
gg1
 10
0.472500
 20
0.645000
  0
SEQEND
  8
gg1
  0
POLYLINE
  8
gg1
 62
1
 40
0.000000
 41
0.000000
 66
  1
  0
VERTEX
  8
gg1
 10
0.465000
 20
0.637500
  0
VERTEX
  8
gg1
 10
0.465000
 20
0.652500
  0
SEQEND
  8
gg1
  0
POLYLINE
  8
gg1
 62
1
 40
0.000000
 41
0.000000
 66
  1
  0
VERTEX
  8
gg1
 10
0.472500
 20
0.683000
  0
VERTEX
  8
gg1
 10
0.487500
 20
0.683000
  0
SEQEND
  8
gg1
  0
POLYLINE
  8
gg1
 62
1
 40
0.000000
 41
0.000000
 66
  1
  0
VERTEX
  8
gg1
 10
0.480000
 20
0.675500
  0
VERTEX
  8
gg1
 10
0.480000
 20
0.690500
  0
SEQEND
  8
gg1
  0
POLYLINE
  8
gg1
 62
1
 40
0.000000
 41
0.000000
 66
  1
  0
VERTEX
  8
gg1
 10
-0.152500
 20
0.470000
  0
VERTEX
  8
gg1
 10
-0.137500
 20
0.470000
  0
SEQEND
  8
gg1
  0
POLYLINE
  8
gg1
 62
1
 40
0.000000
 41
0.000000
 66
  1
  0
VERTEX
  8
gg1
 10
-0.145000
 20
0.462500
  0
VERTEX
  8
gg1
 10
-0.145000
 20
0.477500
  0
SEQEND
  8
gg1
  0
POLYLINE
  8
gg1
 62
1
 40
0.000000
 41
0.000000
 66
  1
  0
VERTEX
  8
gg1
 10
-0.257500
 20
0.700000
  0
VERTEX
  8
gg1
 10
-0.242500
 20
0.700000
  0
SEQEND
  8
gg1
  0
POLYLINE
  8
gg1
 62
1
 40
0.000000
 41
0.000000
 66
  1
  0
VERTEX
  8
gg1
 10
-0.250000
 20
0.692500
  0
VERTEX
  8
gg1
 10
-0.250000
 20
0.707500
  0
SEQEND
  8
gg1
  0
POLYLINE
  8
gg1
 62
1
 40
0.000000
 41
0.000000
 66
  1
  0
VERTEX
  8
gg1
 10
-0.346400
 20
0.700000
  0
VERTEX
  8
gg1
 10
-0.331400
 20
0.700000
  0
SEQEND
  8
gg1
  0
POLYLINE
  8
gg1
 62
1
 40
0.000000
 41
0.000000
 66
  1
  0
VERTEX
  8
gg1
 10
-0.338900
 20
0.692500
  0
VERTEX
  8
gg1
 10
-0.338900
 20
0.707500
  0
SEQEND
  8
gg1
  0
POLYLINE
  8
gg1
 62
1
 40
0.000000
 41
0.000000
 66
  1
  0
VERTEX
  8
gg1
 10
0.217500
 20
0.595000
  0
VERTEX
  8
gg1
 10
0.232500
 20
0.595000
  0
SEQEND
  8
gg1
  0
POLYLINE
  8
gg1
 62
1
 40
0.000000
 41
0.000000
 66
  1
  0
VERTEX
  8
gg1
 10
0.225000
 20
0.587500
  0
VERTEX
  8
gg1
 10
0.225000
 20
0.602500
  0
SEQEND
  8
gg1
  0
POLYLINE
  8
gg1
 62
1
 40
0.000000
 41
0.000000
 66
  1
  0
VERTEX
  8
gg1
 10
0.202500
 20
0.680000
  0
VERTEX
  8
gg1
 10
0.217500
 20
0.680000
  0
SEQEND
  8
gg1
  0
POLYLINE
  8
gg1
 62
1
 40
0.000000
 41
0.000000
 66
  1
  0
VERTEX
  8
gg1
 10
0.210000
 20
0.672500
  0
VERTEX
  8
gg1
 10
0.210000
 20
0.687500
  0
SEQEND
  8
gg1
  0
POLYLINE
  8
gg1
 62
1
 40
0.000000
 41
0.000000
 66
  1
  0
VERTEX
  8
gg1
 10
0.222500
 20
0.635000
  0
VERTEX
  8
gg1
 10
0.237500
 20
0.635000
  0
SEQEND
  8
gg1
  0
POLYLINE
  8
gg1
 62
1
 40
0.000000
 41
0.000000
 66
  1
  0
VERTEX
  8
gg1
 10
0.230000
 20
0.627500
  0
VERTEX
  8
gg1
 10
0.230000
 20
0.642500
  0
SEQEND
  8
gg1
  0
POLYLINE
  8
gg1
 62
1
 40
0.000000
 41
0.000000
 66
  1
  0
VERTEX
  8
gg1
 10
-1.082500
 20
0.250000
  0
VERTEX
  8
gg1
 10
-1.067500
 20
0.250000
  0
SEQEND
  8
gg1
  0
POLYLINE
  8
gg1
 62
1
 40
0.000000
 41
0.000000
 66
  1
  0
VERTEX
  8
gg1
 10
-1.075000
 20
0.242500
  0
VERTEX
  8
gg1
 10
-1.075000
 20
0.257500
  0
SEQEND
  8
gg1
  0
POLYLINE
  8
gg1
 62
1
 40
0.000000
 41
0.000000
 66
  1
  0
VERTEX
  8
gg1
 10
-0.322500
 20
0.675000
  0
VERTEX
  8
gg1
 10
-0.307500
 20
0.675000
  0
SEQEND
  8
gg1
  0
POLYLINE
  8
gg1
 62
1
 40
0.000000
 41
0.000000
 66
  1
  0
VERTEX
  8
gg1
 10
-0.315000
 20
0.667500
  0
VERTEX
  8
gg1
 10
-0.315000
 20
0.682500
  0
SEQEND
  8
gg1
  0
POLYLINE
  8
gg1
 62
1
 40
0.000000
 41
0.000000
 66
  1
  0
VERTEX
  8
gg1
 10
-0.152500
 20
0.530000
  0
VERTEX
  8
gg1
 10
-0.137500
 20
0.530000
  0
SEQEND
  8
gg1
  0
POLYLINE
  8
gg1
 62
1
 40
0.000000
 41
0.000000
 66
  1
  0
VERTEX
  8
gg1
 10
-0.145000
 20
0.522500
  0
VERTEX
  8
gg1
 10
-0.145000
 20
0.537500
  0
SEQEND
  8
gg1
  0
POLYLINE
  8
gg1
 62
1
 40
0.000000
 41
0.000000
 66
  1
  0
VERTEX
  8
gg1
 10
-0.187500
 20
0.310000
  0
VERTEX
  8
gg1
 10
-0.172500
 20
0.310000
  0
SEQEND
  8
gg1
  0
POLYLINE
  8
gg1
 62
1
 40
0.000000
 41
0.000000
 66
  1
  0
VERTEX
  8
gg1
 10
-0.180000
 20
0.302500
  0
VERTEX
  8
gg1
 10
-0.180000
 20
0.317500
  0
SEQEND
  8
gg1
  0
POLYLINE
  8
gg1
 62
1
 40
0.000000
 41
0.000000
 66
  1
  0
VERTEX
  8
gg1
 10
1.132500
 20
0.040000
  0
VERTEX
  8
gg1
 10
1.147500
 20
0.040000
  0
SEQEND
  8
gg1
  0
POLYLINE
  8
gg1
 62
1
 40
0.000000
 41
0.000000
 66
  1
  0
VERTEX
  8
gg1
 10
1.140000
 20
0.032500
  0
VERTEX
  8
gg1
 10
1.140000
 20
0.047500
  0
SEQEND
  8
gg1
  0
POLYLINE
  8
gg1
 62
1
 40
0.000000
 41
0.000000
 66
  1
  0
VERTEX
  8
gg1
 10
0.587500
 20
0.120000
  0
VERTEX
  8
gg1
 10
0.602500
 20
0.120000
  0
SEQEND
  8
gg1
  0
POLYLINE
  8
gg1
 62
1
 40
0.000000
 41
0.000000
 66
  1
  0
VERTEX
  8
gg1
 10
0.595000
 20
0.112500
  0
VERTEX
  8
gg1
 10
0.595000
 20
0.127500
  0
SEQEND
  8
gg1
  0
POLYLINE
  8
gg1
 62
1
 40
0.000000
 41
0.000000
 66
  1
  0
VERTEX
  8
gg1
 10
0.217500
 20
0.120000
  0
VERTEX
  8
gg1
 10
0.232500
 20
0.120000
  0
SEQEND
  8
gg1
  0
POLYLINE
  8
gg1
 62
1
 40
0.000000
 41
0.000000
 66
  1
  0
VERTEX
  8
gg1
 10
0.225000
 20
0.112500
  0
VERTEX
  8
gg1
 10
0.225000
 20
0.127500
  0
SEQEND
  8
gg1
  0
POLYLINE
  8
gg1
 62
1
 40
0.000000
 41
0.000000
 66
  1
  0
VERTEX
  8
gg1
 10
-0.467500
 20
0.315000
  0
VERTEX
  8
gg1
 10
-0.452500
 20
0.315000
  0
SEQEND
  8
gg1
  0
POLYLINE
  8
gg1
 62
1
 40
0.000000
 41
0.000000
 66
  1
  0
VERTEX
  8
gg1
 10
-0.460000
 20
0.307500
  0
VERTEX
  8
gg1
 10
-0.460000
 20
0.322500
  0
SEQEND
  8
gg1
  0
POLYLINE
  8
gg1
 62
1
 40
0.000000
 41
0.000000
 66
  1
  0
VERTEX
  8
gg1
 10
-0.967500
 20
0.200000
  0
VERTEX
  8
gg1
 10
-0.952500
 20
0.200000
  0
SEQEND
  8
gg1
  0
POLYLINE
  8
gg1
 62
1
 40
0.000000
 41
0.000000
 66
  1
  0
VERTEX
  8
gg1
 10
-0.960000
 20
0.192500
  0
VERTEX
  8
gg1
 10
-0.960000
 20
0.207500
  0
SEQEND
  8
gg1
  0
POLYLINE
  8
gg1
 62
1
 40
0.000000
 41
0.000000
 66
  1
  0
VERTEX
  8
gg1
 10
-0.877500
 20
0.200000
  0
VERTEX
  8
gg1
 10
-0.862500
 20
0.200000
  0
SEQEND
  8
gg1
  0
POLYLINE
  8
gg1
 62
1
 40
0.000000
 41
0.000000
 66
  1
  0
VERTEX
  8
gg1
 10
-0.870000
 20
0.192500
  0
VERTEX
  8
gg1
 10
-0.870000
 20
0.207500
  0
SEQEND
  8
gg1
  0
POLYLINE
  8
gg1
 62
1
 40
0.000000
 41
0.000000
 66
  1
  0
VERTEX
  8
gg1
 10
-0.907500
 20
0.200000
  0
VERTEX
  8
gg1
 10
-0.892500
 20
0.200000
  0
SEQEND
  8
gg1
  0
POLYLINE
  8
gg1
 62
1
 40
0.000000
 41
0.000000
 66
  1
  0
VERTEX
  8
gg1
 10
-0.900000
 20
0.192500
  0
VERTEX
  8
gg1
 10
-0.900000
 20
0.207500
  0
SEQEND
  8
gg1
  0
POLYLINE
  8
gg1
 62
1
 40
0.000000
 41
0.000000
 66
  1
  0
VERTEX
  8
gg1
 10
-0.937500
 20
0.200000
  0
VERTEX
  8
gg1
 10
-0.922500
 20
0.200000
  0
SEQEND
  8
gg1
  0
POLYLINE
  8
gg1
 62
1
 40
0.000000
 41
0.000000
 66
  1
  0
VERTEX
  8
gg1
 10
-0.930000
 20
0.192500
  0
VERTEX
  8
gg1
 10
-0.930000
 20
0.207500
  0
SEQEND
  8
gg1
  0
POLYLINE
  8
gg1
 62
1
 40
0.000000
 41
0.000000
 66
  1
  0
VERTEX
  8
gg1
 10
-1.222500
 20
0.070000
  0
VERTEX
  8
gg1
 10
-1.207500
 20
0.070000
  0
SEQEND
  8
gg1
  0
POLYLINE
  8
gg1
 62
1
 40
0.000000
 41
0.000000
 66
  1
  0
VERTEX
  8
gg1
 10
-1.215000
 20
0.062500
  0
VERTEX
  8
gg1
 10
-1.215000
 20
0.077500
  0
SEQEND
  8
gg1
  0
POLYLINE
  8
gg1
 62
1
 40
0.000000
 41
0.000000
 66
  1
  0
VERTEX
  8
gg1
 10
-1.187500
 20
0.040000
  0
VERTEX
  8
gg1
 10
-1.172500
 20
0.040000
  0
SEQEND
  8
gg1
  0
POLYLINE
  8
gg1
 62
1
 40
0.000000
 41
0.000000
 66
  1
  0
VERTEX
  8
gg1
 10
-1.180000
 20
0.032500
  0
VERTEX
  8
gg1
 10
-1.180000
 20
0.047500
  0
SEQEND
  8
gg1
  0
POLYLINE
  8
gg1
 62
1
 40
0.000000
 41
0.000000
 66
  1
  0
VERTEX
  8
gg1
 10
-1.267500
 20
0.210000
  0
VERTEX
  8
gg1
 10
-1.252500
 20
0.210000
  0
SEQEND
  8
gg1
  0
POLYLINE
  8
gg1
 62
1
 40
0.000000
 41
0.000000
 66
  1
  0
VERTEX
  8
gg1
 10
-1.260000
 20
0.202500
  0
VERTEX
  8
gg1
 10
-1.260000
 20
0.217500
  0
SEQEND
  8
gg1
  0
POLYLINE
  8
gg1
 62
1
 40
0.000000
 41
0.000000
 66
  1
  0
VERTEX
  8
gg1
 10
0.397500
 20
2.655700
  0
VERTEX
  8
gg1
 10
0.412500
 20
2.655700
  0
SEQEND
  8
gg1
  0
POLYLINE
  8
gg1
 62
1
 40
0.000000
 41
0.000000
 66
  1
  0
VERTEX
  8
gg1
 10
0.405000
 20
2.648200
  0
VERTEX
  8
gg1
 10
0.405000
 20
2.663200
  0
SEQEND
  8
gg1
  0
POLYLINE
  8
gg1
 62
1
 40
0.000000
 41
0.000000
 66
  1
  0
VERTEX
  8
gg1
 10
0.397500
 20
2.624300
  0
VERTEX
  8
gg1
 10
0.412500
 20
2.624300
  0
SEQEND
  8
gg1
  0
POLYLINE
  8
gg1
 62
1
 40
0.000000
 41
0.000000
 66
  1
  0
VERTEX
  8
gg1
 10
0.405000
 20
2.616800
  0
VERTEX
  8
gg1
 10
0.405000
 20
2.631800
  0
SEQEND
  8
gg1
  0
POLYLINE
  8
gg1
 62
1
 40
0.000000
 41
0.000000
 66
  1
  0
VERTEX
  8
gg1
 10
0.072500
 20
0.039000
  0
VERTEX
  8
gg1
 10
0.087500
 20
0.039000
  0
SEQEND
  8
gg1
  0
POLYLINE
  8
gg1
 62
1
 40
0.000000
 41
0.000000
 66
  1
  0
VERTEX
  8
gg1
 10
0.080000
 20
0.031500
  0
VERTEX
  8
gg1
 10
0.080000
 20
0.046500
  0
SEQEND
  8
gg1
  0
POLYLINE
  8
gg1
 62
1
 40
0.000000
 41
0.000000
 66
  1
  0
VERTEX
  8
gg1
 10
0.277500
 20
0.535000
  0
VERTEX
  8
gg1
 10
0.292500
 20
0.535000
  0
SEQEND
  8
gg1
  0
POLYLINE
  8
gg1
 62
1
 40
0.000000
 41
0.000000
 66
  1
  0
VERTEX
  8
gg1
 10
0.285000
 20
0.527500
  0
VERTEX
  8
gg1
 10
0.285000
 20
0.542500
  0
SEQEND
  8
gg1
  0
POLYLINE
  8
gg1
 62
1
 40
0.000000
 41
0.000000
 66
  1
  0
VERTEX
  8
gg1
 10
0.177500
 20
0.590000
  0
VERTEX
  8
gg1
 10
0.192500
 20
0.590000
  0
SEQEND
  8
gg1
  0
POLYLINE
  8
gg1
 62
1
 40
0.000000
 41
0.000000
 66
  1
  0
VERTEX
  8
gg1
 10
0.185000
 20
0.582500
  0
VERTEX
  8
gg1
 10
0.185000
 20
0.597500
  0
SEQEND
  8
gg1
  0
POLYLINE
  8
gg1
 62
1
 40
0.000000
 41
0.000000
 66
  1
  0
VERTEX
  8
gg1
 10
0.437500
 20
0.290000
  0
VERTEX
  8
gg1
 10
0.452500
 20
0.290000
  0
SEQEND
  8
gg1
  0
POLYLINE
  8
gg1
 62
1
 40
0.000000
 41
0.000000
 66
  1
  0
VERTEX
  8
gg1
 10
0.445000
 20
0.282500
  0
VERTEX
  8
gg1
 10
0.445000
 20
0.297500
  0
SEQEND
  8
gg1
  0
POLYLINE
  8
gg1
 62
1
 40
0.000000
 41
0.000000
 66
  1
  0
VERTEX
  8
gg1
 10
0.472500
 20
0.290000
  0
VERTEX
  8
gg1
 10
0.487500
 20
0.290000
  0
SEQEND
  8
gg1
  0
POLYLINE
  8
gg1
 62
1
 40
0.000000
 41
0.000000
 66
  1
  0
VERTEX
  8
gg1
 10
0.480000
 20
0.282500
  0
VERTEX
  8
gg1
 10
0.480000
 20
0.297500
  0
SEQEND
  8
gg1
  0
POLYLINE
  8
gg1
 62
1
 40
0.000000
 41
0.000000
 66
  1
  0
VERTEX
  8
gg1
 10
0.437500
 20
0.325000
  0
VERTEX
  8
gg1
 10
0.452500
 20
0.325000
  0
SEQEND
  8
gg1
  0
POLYLINE
  8
gg1
 62
1
 40
0.000000
 41
0.000000
 66
  1
  0
VERTEX
  8
gg1
 10
0.445000
 20
0.317500
  0
VERTEX
  8
gg1
 10
0.445000
 20
0.332500
  0
SEQEND
  8
gg1
  0
POLYLINE
  8
gg1
 62
1
 40
0.000000
 41
0.000000
 66
  1
  0
VERTEX
  8
gg1
 10
0.472500
 20
0.325000
  0
VERTEX
  8
gg1
 10
0.487500
 20
0.325000
  0
SEQEND
  8
gg1
  0
POLYLINE
  8
gg1
 62
1
 40
0.000000
 41
0.000000
 66
  1
  0
VERTEX
  8
gg1
 10
0.480000
 20
0.317500
  0
VERTEX
  8
gg1
 10
0.480000
 20
0.332500
  0
SEQEND
  8
gg1
  0
POLYLINE
  8
gg1
 62
1
 40
0.000000
 41
0.000000
 66
  1
  0
VERTEX
  8
gg1
 10
0.542500
 20
0.720000
  0
VERTEX
  8
gg1
 10
0.557500
 20
0.720000
  0
SEQEND
  8
gg1
  0
POLYLINE
  8
gg1
 62
1
 40
0.000000
 41
0.000000
 66
  1
  0
VERTEX
  8
gg1
 10
0.550000
 20
0.712500
  0
VERTEX
  8
gg1
 10
0.550000
 20
0.727500
  0
SEQEND
  8
gg1
  0
POLYLINE
  8
gg1
 62
1
 40
0.000000
 41
0.000000
 66
  1
  0
VERTEX
  8
gg1
 10
0.472500
 20
0.945000
  0
VERTEX
  8
gg1
 10
0.487500
 20
0.945000
  0
SEQEND
  8
gg1
  0
POLYLINE
  8
gg1
 62
1
 40
0.000000
 41
0.000000
 66
  1
  0
VERTEX
  8
gg1
 10
0.480000
 20
0.937500
  0
VERTEX
  8
gg1
 10
0.480000
 20
0.952500
  0
SEQEND
  8
gg1
  0
POLYLINE
  8
gg1
 62
1
 40
0.000000
 41
0.000000
 66
  1
  0
VERTEX
  8
gg1
 10
0.827500
 20
0.527500
  0
VERTEX
  8
gg1
 10
0.842500
 20
0.527500
  0
SEQEND
  8
gg1
  0
POLYLINE
  8
gg1
 62
1
 40
0.000000
 41
0.000000
 66
  1
  0
VERTEX
  8
gg1
 10
0.835000
 20
0.520000
  0
VERTEX
  8
gg1
 10
0.835000
 20
0.535000
  0
SEQEND
  8
gg1
  0
POLYLINE
  8
gg1
 62
1
 40
0.000000
 41
0.000000
 66
  1
  0
VERTEX
  8
gg1
 10
-0.392500
 20
0.795000
  0
VERTEX
  8
gg1
 10
-0.377500
 20
0.795000
  0
SEQEND
  8
gg1
  0
POLYLINE
  8
gg1
 62
1
 40
0.000000
 41
0.000000
 66
  1
  0
VERTEX
  8
gg1
 10
-0.385000
 20
0.787500
  0
VERTEX
  8
gg1
 10
-0.385000
 20
0.802500
  0
SEQEND
  8
gg1
  0
POLYLINE
  8
gg1
 62
1
 40
0.000000
 41
0.000000
 66
  1
  0
VERTEX
  8
gg1
 10
-0.392500
 20
0.745000
  0
VERTEX
  8
gg1
 10
-0.377500
 20
0.745000
  0
SEQEND
  8
gg1
  0
POLYLINE
  8
gg1
 62
1
 40
0.000000
 41
0.000000
 66
  1
  0
VERTEX
  8
gg1
 10
-0.385000
 20
0.737500
  0
VERTEX
  8
gg1
 10
-0.385000
 20
0.752500
  0
SEQEND
  8
gg1
  0
POLYLINE
  8
gg1
 62
1
 40
0.000000
 41
0.000000
 66
  1
  0
VERTEX
  8
gg1
 10
-0.412500
 20
0.770000
  0
VERTEX
  8
gg1
 10
-0.397500
 20
0.770000
  0
SEQEND
  8
gg1
  0
POLYLINE
  8
gg1
 62
1
 40
0.000000
 41
0.000000
 66
  1
  0
VERTEX
  8
gg1
 10
-0.405000
 20
0.762500
  0
VERTEX
  8
gg1
 10
-0.405000
 20
0.777500
  0
SEQEND
  8
gg1
  0
POLYLINE
  8
gg1
 62
1
 40
0.000000
 41
0.000000
 66
  1
  0
VERTEX
  8
gg1
 10
-1.127500
 20
1.115000
  0
VERTEX
  8
gg1
 10
-1.112500
 20
1.115000
  0
SEQEND
  8
gg1
  0
POLYLINE
  8
gg1
 62
1
 40
0.000000
 41
0.000000
 66
  1
  0
VERTEX
  8
gg1
 10
-1.120000
 20
1.107500
  0
VERTEX
  8
gg1
 10
-1.120000
 20
1.122500
  0
SEQEND
  8
gg1
  0
POLYLINE
  8
gg1
 62
1
 40
0.000000
 41
0.000000
 66
  1
  0
VERTEX
  8
gg1
 10
-1.172500
 20
1.160000
  0
VERTEX
  8
gg1
 10
-1.157500
 20
1.160000
  0
SEQEND
  8
gg1
  0
POLYLINE
  8
gg1
 62
1
 40
0.000000
 41
0.000000
 66
  1
  0
VERTEX
  8
gg1
 10
-1.165000
 20
1.152500
  0
VERTEX
  8
gg1
 10
-1.165000
 20
1.167500
  0
SEQEND
  8
gg1
  0
POLYLINE
  8
gg1
 62
1
 40
0.000000
 41
0.000000
 66
  1
  0
VERTEX
  8
gg1
 10
1.151500
 20
1.565000
  0
VERTEX
  8
gg1
 10
1.166500
 20
1.565000
  0
SEQEND
  8
gg1
  0
POLYLINE
  8
gg1
 62
1
 40
0.000000
 41
0.000000
 66
  1
  0
VERTEX
  8
gg1
 10
1.159000
 20
1.557500
  0
VERTEX
  8
gg1
 10
1.159000
 20
1.572500
  0
SEQEND
  8
gg1
  0
POLYLINE
  8
gg1
 62
1
 40
0.000000
 41
0.000000
 66
  1
  0
VERTEX
  8
gg1
 10
0.892500
 20
1.485000
  0
VERTEX
  8
gg1
 10
0.907500
 20
1.485000
  0
SEQEND
  8
gg1
  0
POLYLINE
  8
gg1
 62
1
 40
0.000000
 41
0.000000
 66
  1
  0
VERTEX
  8
gg1
 10
0.900000
 20
1.477500
  0
VERTEX
  8
gg1
 10
0.900000
 20
1.492500
  0
SEQEND
  8
gg1
  0
POLYLINE
  8
gg1
 62
1
 40
0.000000
 41
0.000000
 66
  1
  0
VERTEX
  8
gg1
 10
0.047500
 20
0.180000
  0
VERTEX
  8
gg1
 10
0.062500
 20
0.180000
  0
SEQEND
  8
gg1
  0
POLYLINE
  8
gg1
 62
1
 40
0.000000
 41
0.000000
 66
  1
  0
VERTEX
  8
gg1
 10
0.055000
 20
0.172500
  0
VERTEX
  8
gg1
 10
0.055000
 20
0.187500
  0
SEQEND
  8
gg1
  0
POLYLINE
  8
gg1
 62
1
 40
0.000000
 41
0.000000
 66
  1
  0
VERTEX
  8
gg1
 10
-0.702500
 20
0.470000
  0
VERTEX
  8
gg1
 10
-0.687500
 20
0.470000
  0
SEQEND
  8
gg1
  0
POLYLINE
  8
gg1
 62
1
 40
0.000000
 41
0.000000
 66
  1
  0
VERTEX
  8
gg1
 10
-0.695000
 20
0.462500
  0
VERTEX
  8
gg1
 10
-0.695000
 20
0.477500
  0
SEQEND
  8
gg1
  0
POLYLINE
  8
gg1
 62
1
 40
0.000000
 41
0.000000
 66
  1
  0
VERTEX
  8
gg1
 10
-0.522500
 20
0.436800
  0
VERTEX
  8
gg1
 10
-0.507500
 20
0.436800
  0
SEQEND
  8
gg1
  0
POLYLINE
  8
gg1
 62
1
 40
0.000000
 41
0.000000
 66
  1
  0
VERTEX
  8
gg1
 10
-0.515000
 20
0.429300
  0
VERTEX
  8
gg1
 10
-0.515000
 20
0.444300
  0
SEQEND
  8
gg1
  0
POLYLINE
  8
gg1
 62
1
 40
0.000000
 41
0.000000
 66
  1
  0
VERTEX
  8
gg1
 10
-0.767500
 20
0.470000
  0
VERTEX
  8
gg1
 10
-0.752500
 20
0.470000
  0
SEQEND
  8
gg1
  0
POLYLINE
  8
gg1
 62
1
 40
0.000000
 41
0.000000
 66
  1
  0
VERTEX
  8
gg1
 10
-0.760000
 20
0.462500
  0
VERTEX
  8
gg1
 10
-0.760000
 20
0.477500
  0
SEQEND
  8
gg1
  0
POLYLINE
  8
gg1
 62
1
 40
0.000000
 41
0.000000
 66
  1
  0
VERTEX
  8
gg1
 10
-1.052500
 20
1.682400
  0
VERTEX
  8
gg1
 10
-1.037500
 20
1.682400
  0
SEQEND
  8
gg1
  0
POLYLINE
  8
gg1
 62
1
 40
0.000000
 41
0.000000
 66
  1
  0
VERTEX
  8
gg1
 10
-1.045000
 20
1.674900
  0
VERTEX
  8
gg1
 10
-1.045000
 20
1.689900
  0
SEQEND
  8
gg1
  0
POLYLINE
  8
gg1
 62
1
 40
0.000000
 41
0.000000
 66
  1
  0
VERTEX
  8
gg1
 10
-0.162500
 20
2.545000
  0
VERTEX
  8
gg1
 10
-0.147500
 20
2.545000
  0
SEQEND
  8
gg1
  0
POLYLINE
  8
gg1
 62
1
 40
0.000000
 41
0.000000
 66
  1
  0
VERTEX
  8
gg1
 10
-0.155000
 20
2.537500
  0
VERTEX
  8
gg1
 10
-0.155000
 20
2.552500
  0
SEQEND
  8
gg1
  0
POLYLINE
  8
gg1
 62
1
 40
0.000000
 41
0.000000
 66
  1
  0
VERTEX
  8
gg1
 10
-0.151500
 20
2.585000
  0
VERTEX
  8
gg1
 10
-0.136500
 20
2.585000
  0
SEQEND
  8
gg1
  0
POLYLINE
  8
gg1
 62
1
 40
0.000000
 41
0.000000
 66
  1
  0
VERTEX
  8
gg1
 10
-0.144000
 20
2.577500
  0
VERTEX
  8
gg1
 10
-0.144000
 20
2.592500
  0
SEQEND
  8
gg1
  0
POLYLINE
  8
gg1
 62
1
 40
0.000000
 41
0.000000
 66
  1
  0
VERTEX
  8
gg1
 10
0.132500
 20
2.620000
  0
VERTEX
  8
gg1
 10
0.147500
 20
2.620000
  0
SEQEND
  8
gg1
  0
POLYLINE
  8
gg1
 62
1
 40
0.000000
 41
0.000000
 66
  1
  0
VERTEX
  8
gg1
 10
0.140000
 20
2.612500
  0
VERTEX
  8
gg1
 10
0.140000
 20
2.627500
  0
SEQEND
  8
gg1
  0
POLYLINE
  8
gg1
 62
1
 40
0.000000
 41
0.000000
 66
  1
  0
VERTEX
  8
gg1
 10
-0.005000
 20
2.470000
  0
VERTEX
  8
gg1
 10
0.015000
 20
2.470000
  0
SEQEND
  8
gg1
  0
POLYLINE
  8
gg1
 62
1
 40
0.000000
 41
0.000000
 66
  1
  0
VERTEX
  8
gg1
 10
0.005000
 20
2.460000
  0
VERTEX
  8
gg1
 10
0.005000
 20
2.480000
  0
SEQEND
  8
gg1
  0
POLYLINE
  8
gg1
 62
1
 40
0.000000
 41
0.000000
 66
  1
  0
VERTEX
  8
gg1
 10
0.037500
 20
0.685000
  0
VERTEX
  8
gg1
 10
0.052500
 20
0.685000
  0
SEQEND
  8
gg1
  0
POLYLINE
  8
gg1
 62
1
 40
0.000000
 41
0.000000
 66
  1
  0
VERTEX
  8
gg1
 10
0.045000
 20
0.677500
  0
VERTEX
  8
gg1
 10
0.045000
 20
0.692500
  0
SEQEND
  8
gg1
  0
POLYLINE
  8
gg1
 62
1
 40
0.000000
 41
0.000000
 66
  1
  0
VERTEX
  8
gg1
 10
0.258800
 20
0.731300
  0
VERTEX
  8
gg1
 10
0.273800
 20
0.731300
  0
SEQEND
  8
gg1
  0
POLYLINE
  8
gg1
 62
1
 40
0.000000
 41
0.000000
 66
  1
  0
VERTEX
  8
gg1
 10
0.266300
 20
0.723800
  0
VERTEX
  8
gg1
 10
0.266300
 20
0.738800
  0
SEQEND
  8
gg1
  0
POLYLINE
  8
gg1
 62
1
 40
0.000000
 41
0.000000
 66
  1
  0
VERTEX
  8
gg1
 10
0.258800
 20
0.810000
  0
VERTEX
  8
gg1
 10
0.273800
 20
0.810000
  0
SEQEND
  8
gg1
  0
POLYLINE
  8
gg1
 62
1
 40
0.000000
 41
0.000000
 66
  1
  0
VERTEX
  8
gg1
 10
0.266300
 20
0.802500
  0
VERTEX
  8
gg1
 10
0.266300
 20
0.817500
  0
SEQEND
  8
gg1
  0
POLYLINE
  8
gg1
 62
1
 40
0.000000
 41
0.000000
 66
  1
  0
VERTEX
  8
gg1
 10
0.337500
 20
0.731300
  0
VERTEX
  8
gg1
 10
0.352500
 20
0.731300
  0
SEQEND
  8
gg1
  0
POLYLINE
  8
gg1
 62
1
 40
0.000000
 41
0.000000
 66
  1
  0
VERTEX
  8
gg1
 10
0.345000
 20
0.723800
  0
VERTEX
  8
gg1
 10
0.345000
 20
0.738800
  0
SEQEND
  8
gg1
  0
POLYLINE
  8
gg1
 62
1
 40
0.000000
 41
0.000000
 66
  1
  0
VERTEX
  8
gg1
 10
0.337500
 20
0.810000
  0
VERTEX
  8
gg1
 10
0.352500
 20
0.810000
  0
SEQEND
  8
gg1
  0
POLYLINE
  8
gg1
 62
1
 40
0.000000
 41
0.000000
 66
  1
  0
VERTEX
  8
gg1
 10
0.345000
 20
0.802500
  0
VERTEX
  8
gg1
 10
0.345000
 20
0.817500
  0
SEQEND
  8
gg1
  0
POLYLINE
  8
gg1
 62
1
 40
0.000000
 41
0.000000
 66
  1
  0
VERTEX
  8
gg1
 10
0.337500
 20
0.888700
  0
VERTEX
  8
gg1
 10
0.352500
 20
0.888700
  0
SEQEND
  8
gg1
  0
POLYLINE
  8
gg1
 62
1
 40
0.000000
 41
0.000000
 66
  1
  0
VERTEX
  8
gg1
 10
0.345000
 20
0.881200
  0
VERTEX
  8
gg1
 10
0.345000
 20
0.896200
  0
SEQEND
  8
gg1
  0
POLYLINE
  8
gg1
 62
1
 40
0.000000
 41
0.000000
 66
  1
  0
VERTEX
  8
gg1
 10
0.416200
 20
0.731300
  0
VERTEX
  8
gg1
 10
0.431200
 20
0.731300
  0
SEQEND
  8
gg1
  0
POLYLINE
  8
gg1
 62
1
 40
0.000000
 41
0.000000
 66
  1
  0
VERTEX
  8
gg1
 10
0.423700
 20
0.723800
  0
VERTEX
  8
gg1
 10
0.423700
 20
0.738800
  0
SEQEND
  8
gg1
  0
POLYLINE
  8
gg1
 62
1
 40
0.000000
 41
0.000000
 66
  1
  0
VERTEX
  8
gg1
 10
0.416200
 20
0.810000
  0
VERTEX
  8
gg1
 10
0.431200
 20
0.810000
  0
SEQEND
  8
gg1
  0
POLYLINE
  8
gg1
 62
1
 40
0.000000
 41
0.000000
 66
  1
  0
VERTEX
  8
gg1
 10
0.423700
 20
0.802500
  0
VERTEX
  8
gg1
 10
0.423700
 20
0.817500
  0
SEQEND
  8
gg1
  0
POLYLINE
  8
gg1
 62
1
 40
0.000000
 41
0.000000
 66
  1
  0
VERTEX
  8
gg1
 10
0.416200
 20
0.888700
  0
VERTEX
  8
gg1
 10
0.431200
 20
0.888700
  0
SEQEND
  8
gg1
  0
POLYLINE
  8
gg1
 62
1
 40
0.000000
 41
0.000000
 66
  1
  0
VERTEX
  8
gg1
 10
0.423700
 20
0.881200
  0
VERTEX
  8
gg1
 10
0.423700
 20
0.896200
  0
SEQEND
  8
gg1
  0
POLYLINE
  8
gg1
 62
1
 40
0.000000
 41
0.000000
 66
  1
  0
VERTEX
  8
gg1
 10
-1.047500
 20
1.285000
  0
VERTEX
  8
gg1
 10
-1.032500
 20
1.285000
  0
SEQEND
  8
gg1
  0
POLYLINE
  8
gg1
 62
1
 40
0.000000
 41
0.000000
 66
  1
  0
VERTEX
  8
gg1
 10
-1.040000
 20
1.277500
  0
VERTEX
  8
gg1
 10
-1.040000
 20
1.292500
  0
SEQEND
  8
gg1
  0
POLYLINE
  8
gg1
 62
1
 40
0.000000
 41
0.000000
 66
  1
  0
VERTEX
  8
gg1
 10
-0.967500
 20
0.550000
  0
VERTEX
  8
gg1
 10
-0.952500
 20
0.550000
  0
SEQEND
  8
gg1
  0
POLYLINE
  8
gg1
 62
1
 40
0.000000
 41
0.000000
 66
  1
  0
VERTEX
  8
gg1
 10
-0.960000
 20
0.542500
  0
VERTEX
  8
gg1
 10
-0.960000
 20
0.557500
  0
SEQEND
  8
gg1
  0
POLYLINE
  8
gg1
 62
1
 40
0.000000
 41
0.000000
 66
  1
  0
VERTEX
  8
gg1
 10
-0.936900
 20
0.550000
  0
VERTEX
  8
gg1
 10
-0.921900
 20
0.550000
  0
SEQEND
  8
gg1
  0
POLYLINE
  8
gg1
 62
1
 40
0.000000
 41
0.000000
 66
  1
  0
VERTEX
  8
gg1
 10
-0.929400
 20
0.542500
  0
VERTEX
  8
gg1
 10
-0.929400
 20
0.557500
  0
SEQEND
  8
gg1
  0
POLYLINE
  8
gg1
 62
1
 40
0.000000
 41
0.000000
 66
  1
  0
VERTEX
  8
gg1
 10
-0.907500
 20
0.550000
  0
VERTEX
  8
gg1
 10
-0.892500
 20
0.550000
  0
SEQEND
  8
gg1
  0
POLYLINE
  8
gg1
 62
1
 40
0.000000
 41
0.000000
 66
  1
  0
VERTEX
  8
gg1
 10
-0.900000
 20
0.542500
  0
VERTEX
  8
gg1
 10
-0.900000
 20
0.557500
  0
SEQEND
  8
gg1
  0
POLYLINE
  8
gg1
 62
1
 40
0.000000
 41
0.000000
 66
  1
  0
VERTEX
  8
gg1
 10
-0.612500
 20
1.790000
  0
VERTEX
  8
gg1
 10
-0.597500
 20
1.790000
  0
SEQEND
  8
gg1
  0
POLYLINE
  8
gg1
 62
1
 40
0.000000
 41
0.000000
 66
  1
  0
VERTEX
  8
gg1
 10
-0.605000
 20
1.782500
  0
VERTEX
  8
gg1
 10
-0.605000
 20
1.797500
  0
SEQEND
  8
gg1
  0
POLYLINE
  8
gg1
 62
1
 40
0.000000
 41
0.000000
 66
  1
  0
VERTEX
  8
gg1
 10
-0.772500
 20
1.765000
  0
VERTEX
  8
gg1
 10
-0.757500
 20
1.765000
  0
SEQEND
  8
gg1
  0
POLYLINE
  8
gg1
 62
1
 40
0.000000
 41
0.000000
 66
  1
  0
VERTEX
  8
gg1
 10
-0.765000
 20
1.757500
  0
VERTEX
  8
gg1
 10
-0.765000
 20
1.772500
  0
SEQEND
  8
gg1
  0
POLYLINE
  8
gg1
 62
1
 40
0.000000
 41
0.000000
 66
  1
  0
VERTEX
  8
gg1
 10
-0.652500
 20
1.840000
  0
VERTEX
  8
gg1
 10
-0.637500
 20
1.840000
  0
SEQEND
  8
gg1
  0
POLYLINE
  8
gg1
 62
1
 40
0.000000
 41
0.000000
 66
  1
  0
VERTEX
  8
gg1
 10
-0.645000
 20
1.832500
  0
VERTEX
  8
gg1
 10
-0.645000
 20
1.847500
  0
SEQEND
  8
gg1
  0
POLYLINE
  8
gg1
 62
1
 40
0.000000
 41
0.000000
 66
  1
  0
VERTEX
  8
gg1
 10
0.432500
 20
1.050000
  0
VERTEX
  8
gg1
 10
0.447500
 20
1.050000
  0
SEQEND
  8
gg1
  0
POLYLINE
  8
gg1
 62
1
 40
0.000000
 41
0.000000
 66
  1
  0
VERTEX
  8
gg1
 10
0.440000
 20
1.042500
  0
VERTEX
  8
gg1
 10
0.440000
 20
1.057500
  0
SEQEND
  8
gg1
  0
POLYLINE
  8
gg1
 62
1
 40
0.000000
 41
0.000000
 66
  1
  0
VERTEX
  8
gg1
 10
0.207500
 20
0.960000
  0
VERTEX
  8
gg1
 10
0.222500
 20
0.960000
  0
SEQEND
  8
gg1
  0
POLYLINE
  8
gg1
 62
1
 40
0.000000
 41
0.000000
 66
  1
  0
VERTEX
  8
gg1
 10
0.215000
 20
0.952500
  0
VERTEX
  8
gg1
 10
0.215000
 20
0.967500
  0
SEQEND
  8
gg1
  0
POLYLINE
  8
gg1
 62
1
 40
0.000000
 41
0.000000
 66
  1
  0
VERTEX
  8
gg1
 10
0.202500
 20
1.000000
  0
VERTEX
  8
gg1
 10
0.217500
 20
1.000000
  0
SEQEND
  8
gg1
  0
POLYLINE
  8
gg1
 62
1
 40
0.000000
 41
0.000000
 66
  1
  0
VERTEX
  8
gg1
 10
0.210000
 20
0.992500
  0
VERTEX
  8
gg1
 10
0.210000
 20
1.007500
  0
SEQEND
  8
gg1
  0
POLYLINE
  8
gg1
 62
1
 40
0.000000
 41
0.000000
 66
  1
  0
VERTEX
  8
gg1
 10
0.102500
 20
1.095000
  0
VERTEX
  8
gg1
 10
0.117500
 20
1.095000
  0
SEQEND
  8
gg1
  0
POLYLINE
  8
gg1
 62
1
 40
0.000000
 41
0.000000
 66
  1
  0
VERTEX
  8
gg1
 10
0.110000
 20
1.087500
  0
VERTEX
  8
gg1
 10
0.110000
 20
1.102500
  0
SEQEND
  8
gg1
  0
POLYLINE
  8
gg1
 62
1
 40
0.000000
 41
0.000000
 66
  1
  0
VERTEX
  8
gg1
 10
0.182500
 20
1.140000
  0
VERTEX
  8
gg1
 10
0.197500
 20
1.140000
  0
SEQEND
  8
gg1
  0
POLYLINE
  8
gg1
 62
1
 40
0.000000
 41
0.000000
 66
  1
  0
VERTEX
  8
gg1
 10
0.190000
 20
1.132500
  0
VERTEX
  8
gg1
 10
0.190000
 20
1.147500
  0
SEQEND
  8
gg1
  0
POLYLINE
  8
gg1
 62
1
 40
0.000000
 41
0.000000
 66
  1
  0
VERTEX
  8
gg1
 10
0.222500
 20
1.090000
  0
VERTEX
  8
gg1
 10
0.237500
 20
1.090000
  0
SEQEND
  8
gg1
  0
POLYLINE
  8
gg1
 62
1
 40
0.000000
 41
0.000000
 66
  1
  0
VERTEX
  8
gg1
 10
0.230000
 20
1.082500
  0
VERTEX
  8
gg1
 10
0.230000
 20
1.097500
  0
SEQEND
  8
gg1
  0
POLYLINE
  8
gg1
 62
1
 40
0.000000
 41
0.000000
 66
  1
  0
VERTEX
  8
gg1
 10
0.272500
 20
1.050000
  0
VERTEX
  8
gg1
 10
0.287500
 20
1.050000
  0
SEQEND
  8
gg1
  0
POLYLINE
  8
gg1
 62
1
 40
0.000000
 41
0.000000
 66
  1
  0
VERTEX
  8
gg1
 10
0.280000
 20
1.042500
  0
VERTEX
  8
gg1
 10
0.280000
 20
1.057500
  0
SEQEND
  8
gg1
  0
POLYLINE
  8
gg1
 62
1
 40
0.000000
 41
0.000000
 66
  1
  0
VERTEX
  8
gg1
 10
0.332500
 20
1.110000
  0
VERTEX
  8
gg1
 10
0.347500
 20
1.110000
  0
SEQEND
  8
gg1
  0
POLYLINE
  8
gg1
 62
1
 40
0.000000
 41
0.000000
 66
  1
  0
VERTEX
  8
gg1
 10
0.340000
 20
1.102500
  0
VERTEX
  8
gg1
 10
0.340000
 20
1.117500
  0
SEQEND
  8
gg1
  0
POLYLINE
  8
gg1
 62
1
 40
0.000000
 41
0.000000
 66
  1
  0
VERTEX
  8
gg1
 10
0.367500
 20
1.130000
  0
VERTEX
  8
gg1
 10
0.382500
 20
1.130000
  0
SEQEND
  8
gg1
  0
POLYLINE
  8
gg1
 62
1
 40
0.000000
 41
0.000000
 66
  1
  0
VERTEX
  8
gg1
 10
0.375000
 20
1.122500
  0
VERTEX
  8
gg1
 10
0.375000
 20
1.137500
  0
SEQEND
  8
gg1
  0
POLYLINE
  8
gg1
 62
1
 40
0.000000
 41
0.000000
 66
  1
  0
VERTEX
  8
gg1
 10
0.767500
 20
0.690000
  0
VERTEX
  8
gg1
 10
0.782500
 20
0.690000
  0
SEQEND
  8
gg1
  0
POLYLINE
  8
gg1
 62
1
 40
0.000000
 41
0.000000
 66
  1
  0
VERTEX
  8
gg1
 10
0.775000
 20
0.682500
  0
VERTEX
  8
gg1
 10
0.775000
 20
0.697500
  0
SEQEND
  8
gg1
  0
POLYLINE
  8
gg1
 62
1
 40
0.000000
 41
0.000000
 66
  1
  0
VERTEX
  8
gg1
 10
0.652500
 20
1.035000
  0
VERTEX
  8
gg1
 10
0.667500
 20
1.035000
  0
SEQEND
  8
gg1
  0
POLYLINE
  8
gg1
 62
1
 40
0.000000
 41
0.000000
 66
  1
  0
VERTEX
  8
gg1
 10
0.660000
 20
1.027500
  0
VERTEX
  8
gg1
 10
0.660000
 20
1.042500
  0
SEQEND
  8
gg1
  0
POLYLINE
  8
gg1
 62
1
 40
0.000000
 41
0.000000
 66
  1
  0
VERTEX
  8
gg1
 10
0.682500
 20
1.060000
  0
VERTEX
  8
gg1
 10
0.697500
 20
1.060000
  0
SEQEND
  8
gg1
  0
POLYLINE
  8
gg1
 62
1
 40
0.000000
 41
0.000000
 66
  1
  0
VERTEX
  8
gg1
 10
0.690000
 20
1.052500
  0
VERTEX
  8
gg1
 10
0.690000
 20
1.067500
  0
SEQEND
  8
gg1
  0
POLYLINE
  8
gg1
 62
1
 40
0.000000
 41
0.000000
 66
  1
  0
VERTEX
  8
gg1
 10
0.622500
 20
1.145000
  0
VERTEX
  8
gg1
 10
0.637500
 20
1.145000
  0
SEQEND
  8
gg1
  0
POLYLINE
  8
gg1
 62
1
 40
0.000000
 41
0.000000
 66
  1
  0
VERTEX
  8
gg1
 10
0.630000
 20
1.137500
  0
VERTEX
  8
gg1
 10
0.630000
 20
1.152500
  0
SEQEND
  8
gg1
  0
POLYLINE
  8
gg1
 62
1
 40
0.000000
 41
0.000000
 66
  1
  0
VERTEX
  8
gg1
 10
0.732500
 20
0.875000
  0
VERTEX
  8
gg1
 10
0.747500
 20
0.875000
  0
SEQEND
  8
gg1
  0
POLYLINE
  8
gg1
 62
1
 40
0.000000
 41
0.000000
 66
  1
  0
VERTEX
  8
gg1
 10
0.740000
 20
0.867500
  0
VERTEX
  8
gg1
 10
0.740000
 20
0.882500
  0
SEQEND
  8
gg1
  0
POLYLINE
  8
gg1
 62
1
 40
0.000000
 41
0.000000
 66
  1
  0
VERTEX
  8
gg1
 10
0.782500
 20
0.945000
  0
VERTEX
  8
gg1
 10
0.797500
 20
0.945000
  0
SEQEND
  8
gg1
  0
POLYLINE
  8
gg1
 62
1
 40
0.000000
 41
0.000000
 66
  1
  0
VERTEX
  8
gg1
 10
0.790000
 20
0.937500
  0
VERTEX
  8
gg1
 10
0.790000
 20
0.952500
  0
SEQEND
  8
gg1
  0
POLYLINE
  8
gg1
 62
1
 40
0.000000
 41
0.000000
 66
  1
  0
VERTEX
  8
gg1
 10
0.702500
 20
0.935000
  0
VERTEX
  8
gg1
 10
0.717500
 20
0.935000
  0
SEQEND
  8
gg1
  0
POLYLINE
  8
gg1
 62
1
 40
0.000000
 41
0.000000
 66
  1
  0
VERTEX
  8
gg1
 10
0.710000
 20
0.927500
  0
VERTEX
  8
gg1
 10
0.710000
 20
0.942500
  0
SEQEND
  8
gg1
  0
POLYLINE
  8
gg1
 62
1
 40
0.000000
 41
0.000000
 66
  1
  0
VERTEX
  8
gg1
 10
0.667500
 20
0.955000
  0
VERTEX
  8
gg1
 10
0.682500
 20
0.955000
  0
SEQEND
  8
gg1
  0
POLYLINE
  8
gg1
 62
1
 40
0.000000
 41
0.000000
 66
  1
  0
VERTEX
  8
gg1
 10
0.675000
 20
0.947500
  0
VERTEX
  8
gg1
 10
0.675000
 20
0.962500
  0
SEQEND
  8
gg1
  0
POLYLINE
  8
gg1
 62
1
 40
0.000000
 41
0.000000
 66
  1
  0
VERTEX
  8
gg1
 10
0.592500
 20
0.955000
  0
VERTEX
  8
gg1
 10
0.607500
 20
0.955000
  0
SEQEND
  8
gg1
  0
POLYLINE
  8
gg1
 62
1
 40
0.000000
 41
0.000000
 66
  1
  0
VERTEX
  8
gg1
 10
0.600000
 20
0.947500
  0
VERTEX
  8
gg1
 10
0.600000
 20
0.962500
  0
SEQEND
  8
gg1
  0
POLYLINE
  8
gg1
 62
1
 40
0.000000
 41
0.000000
 66
  1
  0
VERTEX
  8
gg1
 10
0.597500
 20
0.995000
  0
VERTEX
  8
gg1
 10
0.612500
 20
0.995000
  0
SEQEND
  8
gg1
  0
POLYLINE
  8
gg1
 62
1
 40
0.000000
 41
0.000000
 66
  1
  0
VERTEX
  8
gg1
 10
0.605000
 20
0.987500
  0
VERTEX
  8
gg1
 10
0.605000
 20
1.002500
  0
SEQEND
  8
gg1
  0
POLYLINE
  8
gg1
 62
1
 40
0.000000
 41
0.000000
 66
  1
  0
VERTEX
  8
gg1
 10
0.592500
 20
1.075000
  0
VERTEX
  8
gg1
 10
0.607500
 20
1.075000
  0
SEQEND
  8
gg1
  0
POLYLINE
  8
gg1
 62
1
 40
0.000000
 41
0.000000
 66
  1
  0
VERTEX
  8
gg1
 10
0.600000
 20
1.067500
  0
VERTEX
  8
gg1
 10
0.600000
 20
1.082500
  0
SEQEND
  8
gg1
  0
POLYLINE
  8
gg1
 62
1
 40
0.000000
 41
0.000000
 66
  1
  0
VERTEX
  8
gg1
 10
0.307500
 20
1.305000
  0
VERTEX
  8
gg1
 10
0.322500
 20
1.305000
  0
SEQEND
  8
gg1
  0
POLYLINE
  8
gg1
 62
1
 40
0.000000
 41
0.000000
 66
  1
  0
VERTEX
  8
gg1
 10
0.315000
 20
1.297500
  0
VERTEX
  8
gg1
 10
0.315000
 20
1.312500
  0
SEQEND
  8
gg1
  0
POLYLINE
  8
gg1
 62
1
 40
0.000000
 41
0.000000
 66
  1
  0
VERTEX
  8
gg1
 10
0.407500
 20
1.255000
  0
VERTEX
  8
gg1
 10
0.422500
 20
1.255000
  0
SEQEND
  8
gg1
  0
POLYLINE
  8
gg1
 62
1
 40
0.000000
 41
0.000000
 66
  1
  0
VERTEX
  8
gg1
 10
0.415000
 20
1.247500
  0
VERTEX
  8
gg1
 10
0.415000
 20
1.262500
  0
SEQEND
  8
gg1
  0
POLYLINE
  8
gg1
 62
1
 40
0.000000
 41
0.000000
 66
  1
  0
VERTEX
  8
gg1
 10
0.437500
 20
1.285000
  0
VERTEX
  8
gg1
 10
0.452500
 20
1.285000
  0
SEQEND
  8
gg1
  0
POLYLINE
  8
gg1
 62
1
 40
0.000000
 41
0.000000
 66
  1
  0
VERTEX
  8
gg1
 10
0.445000
 20
1.277500
  0
VERTEX
  8
gg1
 10
0.445000
 20
1.292500
  0
SEQEND
  8
gg1
  0
POLYLINE
  8
gg1
 62
1
 40
0.000000
 41
0.000000
 66
  1
  0
VERTEX
  8
gg1
 10
0.382500
 20
1.190000
  0
VERTEX
  8
gg1
 10
0.397500
 20
1.190000
  0
SEQEND
  8
gg1
  0
POLYLINE
  8
gg1
 62
1
 40
0.000000
 41
0.000000
 66
  1
  0
VERTEX
  8
gg1
 10
0.390000
 20
1.182500
  0
VERTEX
  8
gg1
 10
0.390000
 20
1.197500
  0
SEQEND
  8
gg1
  0
POLYLINE
  8
gg1
 62
1
 40
0.000000
 41
0.000000
 66
  1
  0
VERTEX
  8
gg1
 10
0.452500
 20
0.990000
  0
VERTEX
  8
gg1
 10
0.467500
 20
0.990000
  0
SEQEND
  8
gg1
  0
POLYLINE
  8
gg1
 62
1
 40
0.000000
 41
0.000000
 66
  1
  0
VERTEX
  8
gg1
 10
0.460000
 20
0.982500
  0
VERTEX
  8
gg1
 10
0.460000
 20
0.997500
  0
SEQEND
  8
gg1
  0
POLYLINE
  8
gg1
 62
1
 40
0.000000
 41
0.000000
 66
  1
  0
VERTEX
  8
gg1
 10
0.592500
 20
1.115000
  0
VERTEX
  8
gg1
 10
0.607500
 20
1.115000
  0
SEQEND
  8
gg1
  0
POLYLINE
  8
gg1
 62
1
 40
0.000000
 41
0.000000
 66
  1
  0
VERTEX
  8
gg1
 10
0.600000
 20
1.107500
  0
VERTEX
  8
gg1
 10
0.600000
 20
1.122500
  0
SEQEND
  8
gg1
  0
POLYLINE
  8
gg1
 62
1
 40
0.000000
 41
0.000000
 66
  1
  0
VERTEX
  8
gg1
 10
0.592500
 20
1.175000
  0
VERTEX
  8
gg1
 10
0.607500
 20
1.175000
  0
SEQEND
  8
gg1
  0
POLYLINE
  8
gg1
 62
1
 40
0.000000
 41
0.000000
 66
  1
  0
VERTEX
  8
gg1
 10
0.600000
 20
1.167500
  0
VERTEX
  8
gg1
 10
0.600000
 20
1.182500
  0
SEQEND
  8
gg1
  0
POLYLINE
  8
gg1
 62
1
 40
0.000000
 41
0.000000
 66
  1
  0
VERTEX
  8
gg1
 10
0.432500
 20
1.220000
  0
VERTEX
  8
gg1
 10
0.447500
 20
1.220000
  0
SEQEND
  8
gg1
  0
POLYLINE
  8
gg1
 62
1
 40
0.000000
 41
0.000000
 66
  1
  0
VERTEX
  8
gg1
 10
0.440000
 20
1.212500
  0
VERTEX
  8
gg1
 10
0.440000
 20
1.227500
  0
SEQEND
  8
gg1
  0
POLYLINE
  8
gg1
 62
1
 40
0.000000
 41
0.000000
 66
  1
  0
VERTEX
  8
gg1
 10
0.412500
 20
1.160000
  0
VERTEX
  8
gg1
 10
0.427500
 20
1.160000
  0
SEQEND
  8
gg1
  0
POLYLINE
  8
gg1
 62
1
 40
0.000000
 41
0.000000
 66
  1
  0
VERTEX
  8
gg1
 10
0.420000
 20
1.152500
  0
VERTEX
  8
gg1
 10
0.420000
 20
1.167500
  0
SEQEND
  8
gg1
  0
POLYLINE
  8
gg1
 62
1
 40
0.000000
 41
0.000000
 66
  1
  0
VERTEX
  8
gg1
 10
0.622500
 20
1.265000
  0
VERTEX
  8
gg1
 10
0.637500
 20
1.265000
  0
SEQEND
  8
gg1
  0
POLYLINE
  8
gg1
 62
1
 40
0.000000
 41
0.000000
 66
  1
  0
VERTEX
  8
gg1
 10
0.630000
 20
1.257500
  0
VERTEX
  8
gg1
 10
0.630000
 20
1.272500
  0
SEQEND
  8
gg1
  0
POLYLINE
  8
gg1
 62
1
 40
0.000000
 41
0.000000
 66
  1
  0
VERTEX
  8
gg1
 10
0.662500
 20
1.350000
  0
VERTEX
  8
gg1
 10
0.677500
 20
1.350000
  0
SEQEND
  8
gg1
  0
POLYLINE
  8
gg1
 62
1
 40
0.000000
 41
0.000000
 66
  1
  0
VERTEX
  8
gg1
 10
0.670000
 20
1.342500
  0
VERTEX
  8
gg1
 10
0.670000
 20
1.357500
  0
SEQEND
  8
gg1
  0
POLYLINE
  8
gg1
 62
1
 40
0.000000
 41
0.000000
 66
  1
  0
VERTEX
  8
gg1
 10
0.632500
 20
1.375000
  0
VERTEX
  8
gg1
 10
0.647500
 20
1.375000
  0
SEQEND
  8
gg1
  0
POLYLINE
  8
gg1
 62
1
 40
0.000000
 41
0.000000
 66
  1
  0
VERTEX
  8
gg1
 10
0.640000
 20
1.367500
  0
VERTEX
  8
gg1
 10
0.640000
 20
1.382500
  0
SEQEND
  8
gg1
  0
POLYLINE
  8
gg1
 62
1
 40
0.000000
 41
0.000000
 66
  1
  0
VERTEX
  8
gg1
 10
0.577500
 20
1.340000
  0
VERTEX
  8
gg1
 10
0.592500
 20
1.340000
  0
SEQEND
  8
gg1
  0
POLYLINE
  8
gg1
 62
1
 40
0.000000
 41
0.000000
 66
  1
  0
VERTEX
  8
gg1
 10
0.585000
 20
1.332500
  0
VERTEX
  8
gg1
 10
0.585000
 20
1.347500
  0
SEQEND
  8
gg1
  0
POLYLINE
  8
gg1
 62
1
 40
0.000000
 41
0.000000
 66
  1
  0
VERTEX
  8
gg1
 10
0.532500
 20
1.295000
  0
VERTEX
  8
gg1
 10
0.547500
 20
1.295000
  0
SEQEND
  8
gg1
  0
POLYLINE
  8
gg1
 62
1
 40
0.000000
 41
0.000000
 66
  1
  0
VERTEX
  8
gg1
 10
0.540000
 20
1.287500
  0
VERTEX
  8
gg1
 10
0.540000
 20
1.302500
  0
SEQEND
  8
gg1
  0
POLYLINE
  8
gg1
 62
1
 40
0.000000
 41
0.000000
 66
  1
  0
VERTEX
  8
gg1
 10
-0.792500
 20
1.800000
  0
VERTEX
  8
gg1
 10
-0.777500
 20
1.800000
  0
SEQEND
  8
gg1
  0
POLYLINE
  8
gg1
 62
1
 40
0.000000
 41
0.000000
 66
  1
  0
VERTEX
  8
gg1
 10
-0.785000
 20
1.792500
  0
VERTEX
  8
gg1
 10
-0.785000
 20
1.807500
  0
SEQEND
  8
gg1
  0
POLYLINE
  8
gg1
 62
1
 40
0.000000
 41
0.000000
 66
  1
  0
VERTEX
  8
gg1
 10
-0.302500
 20
0.600000
  0
VERTEX
  8
gg1
 10
-0.287500
 20
0.600000
  0
SEQEND
  8
gg1
  0
POLYLINE
  8
gg1
 62
1
 40
0.000000
 41
0.000000
 66
  1
  0
VERTEX
  8
gg1
 10
-0.295000
 20
0.592500
  0
VERTEX
  8
gg1
 10
-0.295000
 20
0.607500
  0
SEQEND
  8
gg1
  0
POLYLINE
  8
gg1
 62
1
 40
0.000000
 41
0.000000
 66
  1
  0
VERTEX
  8
gg1
 10
-0.332500
 20
0.600000
  0
VERTEX
  8
gg1
 10
-0.317500
 20
0.600000
  0
SEQEND
  8
gg1
  0
POLYLINE
  8
gg1
 62
1
 40
0.000000
 41
0.000000
 66
  1
  0
VERTEX
  8
gg1
 10
-0.325000
 20
0.592500
  0
VERTEX
  8
gg1
 10
-0.325000
 20
0.607500
  0
SEQEND
  8
gg1
  0
POLYLINE
  8
gg1
 62
1
 40
0.000000
 41
0.000000
 66
  1
  0
VERTEX
  8
gg1
 10
-0.877500
 20
0.550000
  0
VERTEX
  8
gg1
 10
-0.862500
 20
0.550000
  0
SEQEND
  8
gg1
  0
POLYLINE
  8
gg1
 62
1
 40
0.000000
 41
0.000000
 66
  1
  0
VERTEX
  8
gg1
 10
-0.870000
 20
0.542500
  0
VERTEX
  8
gg1
 10
-0.870000
 20
0.557500
  0
SEQEND
  8
gg1
  0
POLYLINE
  8
gg1
 62
1
 40
0.000000
 41
0.000000
 66
  1
  0
VERTEX
  8
gg1
 10
-0.797500
 20
1.635000
  0
VERTEX
  8
gg1
 10
-0.782500
 20
1.635000
  0
SEQEND
  8
gg1
  0
POLYLINE
  8
gg1
 62
1
 40
0.000000
 41
0.000000
 66
  1
  0
VERTEX
  8
gg1
 10
-0.790000
 20
1.627500
  0
VERTEX
  8
gg1
 10
-0.790000
 20
1.642500
  0
SEQEND
  8
gg1
  0
POLYLINE
  8
gg1
 62
1
 40
0.000000
 41
0.000000
 66
  1
  0
VERTEX
  8
gg1
 10
-0.532500
 20
1.495000
  0
VERTEX
  8
gg1
 10
-0.517500
 20
1.495000
  0
SEQEND
  8
gg1
  0
POLYLINE
  8
gg1
 62
1
 40
0.000000
 41
0.000000
 66
  1
  0
VERTEX
  8
gg1
 10
-0.525000
 20
1.487500
  0
VERTEX
  8
gg1
 10
-0.525000
 20
1.502500
  0
SEQEND
  8
gg1
  0
POLYLINE
  8
gg1
 62
1
 40
0.000000
 41
0.000000
 66
  1
  0
VERTEX
  8
gg1
 10
-0.677500
 20
1.520000
  0
VERTEX
  8
gg1
 10
-0.662500
 20
1.520000
  0
SEQEND
  8
gg1
  0
POLYLINE
  8
gg1
 62
1
 40
0.000000
 41
0.000000
 66
  1
  0
VERTEX
  8
gg1
 10
-0.670000
 20
1.512500
  0
VERTEX
  8
gg1
 10
-0.670000
 20
1.527500
  0
SEQEND
  8
gg1
  0
POLYLINE
  8
gg1
 62
1
 40
0.000000
 41
0.000000
 66
  1
  0
VERTEX
  8
gg1
 10
-0.652500
 20
1.800000
  0
VERTEX
  8
gg1
 10
-0.637500
 20
1.800000
  0
SEQEND
  8
gg1
  0
POLYLINE
  8
gg1
 62
1
 40
0.000000
 41
0.000000
 66
  1
  0
VERTEX
  8
gg1
 10
-0.645000
 20
1.792500
  0
VERTEX
  8
gg1
 10
-0.645000
 20
1.807500
  0
SEQEND
  8
gg1
  0
POLYLINE
  8
gg1
 62
1
 40
0.000000
 41
0.000000
 66
  1
  0
VERTEX
  8
gg1
 10
-0.672500
 20
1.765000
  0
VERTEX
  8
gg1
 10
-0.657500
 20
1.765000
  0
SEQEND
  8
gg1
  0
POLYLINE
  8
gg1
 62
1
 40
0.000000
 41
0.000000
 66
  1
  0
VERTEX
  8
gg1
 10
-0.665000
 20
1.757500
  0
VERTEX
  8
gg1
 10
-0.665000
 20
1.772500
  0
SEQEND
  8
gg1
  0
POLYLINE
  8
gg1
 62
1
 40
0.000000
 41
0.000000
 66
  1
  0
VERTEX
  8
gg1
 10
0.227500
 20
1.225000
  0
VERTEX
  8
gg1
 10
0.242500
 20
1.225000
  0
SEQEND
  8
gg1
  0
POLYLINE
  8
gg1
 62
1
 40
0.000000
 41
0.000000
 66
  1
  0
VERTEX
  8
gg1
 10
0.235000
 20
1.217500
  0
VERTEX
  8
gg1
 10
0.235000
 20
1.232500
  0
SEQEND
  8
gg1
  0
POLYLINE
  8
gg1
 62
1
 40
0.000000
 41
0.000000
 66
  1
  0
VERTEX
  8
gg1
 10
0.497500
 20
1.345000
  0
VERTEX
  8
gg1
 10
0.512500
 20
1.345000
  0
SEQEND
  8
gg1
  0
POLYLINE
  8
gg1
 62
1
 40
0.000000
 41
0.000000
 66
  1
  0
VERTEX
  8
gg1
 10
0.505000
 20
1.337500
  0
VERTEX
  8
gg1
 10
0.505000
 20
1.352500
  0
SEQEND
  8
gg1
  0
POLYLINE
  8
gg1
 62
1
 40
0.000000
 41
0.000000
 66
  1
  0
VERTEX
  8
gg1
 10
0.127500
 20
1.375000
  0
VERTEX
  8
gg1
 10
0.142500
 20
1.375000
  0
SEQEND
  8
gg1
  0
POLYLINE
  8
gg1
 62
1
 40
0.000000
 41
0.000000
 66
  1
  0
VERTEX
  8
gg1
 10
0.135000
 20
1.367500
  0
VERTEX
  8
gg1
 10
0.135000
 20
1.382500
  0
SEQEND
  8
gg1
  0
POLYLINE
  8
gg1
 62
1
 40
0.000000
 41
0.000000
 66
  1
  0
VERTEX
  8
gg1
 10
0.617500
 20
1.520000
  0
VERTEX
  8
gg1
 10
0.632500
 20
1.520000
  0
SEQEND
  8
gg1
  0
POLYLINE
  8
gg1
 62
1
 40
0.000000
 41
0.000000
 66
  1
  0
VERTEX
  8
gg1
 10
0.625000
 20
1.512500
  0
VERTEX
  8
gg1
 10
0.625000
 20
1.527500
  0
SEQEND
  8
gg1
  0
POLYLINE
  8
gg1
 62
1
 40
0.000000
 41
0.000000
 66
  1
  0
VERTEX
  8
gg1
 10
0.207500
 20
2.485000
  0
VERTEX
  8
gg1
 10
0.222500
 20
2.485000
  0
SEQEND
  8
gg1
  0
POLYLINE
  8
gg1
 62
1
 40
0.000000
 41
0.000000
 66
  1
  0
VERTEX
  8
gg1
 10
0.215000
 20
2.477500
  0
VERTEX
  8
gg1
 10
0.215000
 20
2.492500
  0
SEQEND
  8
gg1
  0
POLYLINE
  8
gg1
 62
1
 40
0.000000
 41
0.000000
 66
  1
  0
VERTEX
  8
gg1
 10
0.147500
 20
2.485000
  0
VERTEX
  8
gg1
 10
0.162500
 20
2.485000
  0
SEQEND
  8
gg1
  0
POLYLINE
  8
gg1
 62
1
 40
0.000000
 41
0.000000
 66
  1
  0
VERTEX
  8
gg1
 10
0.155000
 20
2.477500
  0
VERTEX
  8
gg1
 10
0.155000
 20
2.492500
  0
SEQEND
  8
gg1
  0
POLYLINE
  8
gg1
 62
1
 40
0.000000
 41
0.000000
 66
  1
  0
VERTEX
  8
gg1
 10
0.077500
 20
2.415000
  0
VERTEX
  8
gg1
 10
0.092500
 20
2.415000
  0
SEQEND
  8
gg1
  0
POLYLINE
  8
gg1
 62
1
 40
0.000000
 41
0.000000
 66
  1
  0
VERTEX
  8
gg1
 10
0.085000
 20
2.407500
  0
VERTEX
  8
gg1
 10
0.085000
 20
2.422500
  0
SEQEND
  8
gg1
  0
POLYLINE
  8
gg1
 62
1
 40
0.000000
 41
0.000000
 66
  1
  0
VERTEX
  8
gg1
 10
0.177500
 20
1.445000
  0
VERTEX
  8
gg1
 10
0.192500
 20
1.445000
  0
SEQEND
  8
gg1
  0
POLYLINE
  8
gg1
 62
1
 40
0.000000
 41
0.000000
 66
  1
  0
VERTEX
  8
gg1
 10
0.185000
 20
1.437500
  0
VERTEX
  8
gg1
 10
0.185000
 20
1.452500
  0
SEQEND
  8
gg1
  0
POLYLINE
  8
gg1
 62
1
 40
0.000000
 41
0.000000
 66
  1
  0
VERTEX
  8
gg1
 10
0.257500
 20
1.425000
  0
VERTEX
  8
gg1
 10
0.272500
 20
1.425000
  0
SEQEND
  8
gg1
  0
POLYLINE
  8
gg1
 62
1
 40
0.000000
 41
0.000000
 66
  1
  0
VERTEX
  8
gg1
 10
0.265000
 20
1.417500
  0
VERTEX
  8
gg1
 10
0.265000
 20
1.432500
  0
SEQEND
  8
gg1
  0
POLYLINE
  8
gg1
 62
1
 40
0.000000
 41
0.000000
 66
  1
  0
VERTEX
  8
gg1
 10
0.337500
 20
1.495000
  0
VERTEX
  8
gg1
 10
0.352500
 20
1.495000
  0
SEQEND
  8
gg1
  0
POLYLINE
  8
gg1
 62
1
 40
0.000000
 41
0.000000
 66
  1
  0
VERTEX
  8
gg1
 10
0.345000
 20
1.487500
  0
VERTEX
  8
gg1
 10
0.345000
 20
1.502500
  0
SEQEND
  8
gg1
  0
POLYLINE
  8
gg1
 62
1
 40
0.000000
 41
0.000000
 66
  1
  0
VERTEX
  8
gg1
 10
0.662500
 20
1.610000
  0
VERTEX
  8
gg1
 10
0.677500
 20
1.610000
  0
SEQEND
  8
gg1
  0
POLYLINE
  8
gg1
 62
1
 40
0.000000
 41
0.000000
 66
  1
  0
VERTEX
  8
gg1
 10
0.670000
 20
1.602500
  0
VERTEX
  8
gg1
 10
0.670000
 20
1.617500
  0
SEQEND
  8
gg1
  0
POLYLINE
  8
gg1
 62
1
 40
0.000000
 41
0.000000
 66
  1
  0
VERTEX
  8
gg1
 10
0.742500
 20
2.980000
  0
VERTEX
  8
gg1
 10
0.757500
 20
2.980000
  0
SEQEND
  8
gg1
  0
POLYLINE
  8
gg1
 62
1
 40
0.000000
 41
0.000000
 66
  1
  0
VERTEX
  8
gg1
 10
0.750000
 20
2.972500
  0
VERTEX
  8
gg1
 10
0.750000
 20
2.987500
  0
SEQEND
  8
gg1
  0
POLYLINE
  8
gg1
 62
1
 40
0.000000
 41
0.000000
 66
  1
  0
VERTEX
  8
gg1
 10
-0.682500
 20
2.980000
  0
VERTEX
  8
gg1
 10
-0.667500
 20
2.980000
  0
SEQEND
  8
gg1
  0
POLYLINE
  8
gg1
 62
1
 40
0.000000
 41
0.000000
 66
  1
  0
VERTEX
  8
gg1
 10
-0.675000
 20
2.972500
  0
VERTEX
  8
gg1
 10
-0.675000
 20
2.987500
  0
SEQEND
  8
gg1
  0
POLYLINE
  8
gg1
 62
1
 40
0.000000
 41
0.000000
 66
  1
  0
VERTEX
  8
gg1
 10
-0.212500
 20
0.795000
  0
VERTEX
  8
gg1
 10
-0.197500
 20
0.795000
  0
SEQEND
  8
gg1
  0
POLYLINE
  8
gg1
 62
1
 40
0.000000
 41
0.000000
 66
  1
  0
VERTEX
  8
gg1
 10
-0.205000
 20
0.787500
  0
VERTEX
  8
gg1
 10
-0.205000
 20
0.802500
  0
SEQEND
  8
gg1
  0
POLYLINE
  8
gg1
 62
1
 40
0.000000
 41
0.000000
 66
  1
  0
VERTEX
  8
gg1
 10
-0.192500
 20
0.770000
  0
VERTEX
  8
gg1
 10
-0.177500
 20
0.770000
  0
SEQEND
  8
gg1
  0
POLYLINE
  8
gg1
 62
1
 40
0.000000
 41
0.000000
 66
  1
  0
VERTEX
  8
gg1
 10
-0.185000
 20
0.762500
  0
VERTEX
  8
gg1
 10
-0.185000
 20
0.777500
  0
SEQEND
  8
gg1
  0
POLYLINE
  8
gg1
 62
1
 40
0.000000
 41
0.000000
 66
  1
  0
VERTEX
  8
gg1
 10
-0.212500
 20
0.745000
  0
VERTEX
  8
gg1
 10
-0.197500
 20
0.745000
  0
SEQEND
  8
gg1
  0
POLYLINE
  8
gg1
 62
1
 40
0.000000
 41
0.000000
 66
  1
  0
VERTEX
  8
gg1
 10
-0.205000
 20
0.737500
  0
VERTEX
  8
gg1
 10
-0.205000
 20
0.752500
  0
SEQEND
  8
gg1
  0
POLYLINE
  8
gg1
 62
1
 40
0.000000
 41
0.000000
 66
  1
  0
VERTEX
  8
gg1
 10
-0.282500
 20
0.675000
  0
VERTEX
  8
gg1
 10
-0.267500
 20
0.675000
  0
SEQEND
  8
gg1
  0
POLYLINE
  8
gg1
 62
1
 40
0.000000
 41
0.000000
 66
  1
  0
VERTEX
  8
gg1
 10
-0.275000
 20
0.667500
  0
VERTEX
  8
gg1
 10
-0.275000
 20
0.682500
  0
SEQEND
  8
gg1
  0
POLYLINE
  8
gg1
 62
1
 40
0.000000
 41
0.000000
 66
  1
  0
VERTEX
  8
gg1
 10
-0.032500
 20
0.245000
  0
VERTEX
  8
gg1
 10
-0.017500
 20
0.245000
  0
SEQEND
  8
gg1
  0
POLYLINE
  8
gg1
 62
1
 40
0.000000
 41
0.000000
 66
  1
  0
VERTEX
  8
gg1
 10
-0.025000
 20
0.237500
  0
VERTEX
  8
gg1
 10
-0.025000
 20
0.252500
  0
SEQEND
  8
gg1
  0
POLYLINE
  8
gg1
 62
1
 40
0.000000
 41
0.000000
 66
  1
  0
VERTEX
  8
gg1
 10
-0.032500
 20
0.335000
  0
VERTEX
  8
gg1
 10
-0.017500
 20
0.335000
  0
SEQEND
  8
gg1
  0
POLYLINE
  8
gg1
 62
1
 40
0.000000
 41
0.000000
 66
  1
  0
VERTEX
  8
gg1
 10
-0.025000
 20
0.327500
  0
VERTEX
  8
gg1
 10
-0.025000
 20
0.342500
  0
SEQEND
  8
gg1
  0
POLYLINE
  8
gg1
 62
1
 40
0.000000
 41
0.000000
 66
  1
  0
VERTEX
  8
gg1
 10
-0.327500
 20
0.235000
  0
VERTEX
  8
gg1
 10
-0.312500
 20
0.235000
  0
SEQEND
  8
gg1
  0
POLYLINE
  8
gg1
 62
1
 40
0.000000
 41
0.000000
 66
  1
  0
VERTEX
  8
gg1
 10
-0.320000
 20
0.227500
  0
VERTEX
  8
gg1
 10
-0.320000
 20
0.242500
  0
SEQEND
  8
gg1
  0
POLYLINE
  8
gg1
 62
1
 40
0.000000
 41
0.000000
 66
  1
  0
VERTEX
  8
gg1
 10
-0.202500
 20
0.140000
  0
VERTEX
  8
gg1
 10
-0.187500
 20
0.140000
  0
SEQEND
  8
gg1
  0
POLYLINE
  8
gg1
 62
1
 40
0.000000
 41
0.000000
 66
  1
  0
VERTEX
  8
gg1
 10
-0.195000
 20
0.132500
  0
VERTEX
  8
gg1
 10
-0.195000
 20
0.147500
  0
SEQEND
  8
gg1
  0
POLYLINE
  8
gg1
 62
1
 40
0.000000
 41
0.000000
 66
  1
  0
VERTEX
  8
gg1
 10
0.022500
 20
0.540000
  0
VERTEX
  8
gg1
 10
0.037500
 20
0.540000
  0
SEQEND
  8
gg1
  0
POLYLINE
  8
gg1
 62
1
 40
0.000000
 41
0.000000
 66
  1
  0
VERTEX
  8
gg1
 10
0.030000
 20
0.532500
  0
VERTEX
  8
gg1
 10
0.030000
 20
0.547500
  0
SEQEND
  8
gg1
  0
POLYLINE
  8
gg1
 62
1
 40
0.000000
 41
0.000000
 66
  1
  0
VERTEX
  8
gg1
 10
1.012500
 20
1.105000
  0
VERTEX
  8
gg1
 10
1.027500
 20
1.105000
  0
SEQEND
  8
gg1
  0
POLYLINE
  8
gg1
 62
1
 40
0.000000
 41
0.000000
 66
  1
  0
VERTEX
  8
gg1
 10
1.020000
 20
1.097500
  0
VERTEX
  8
gg1
 10
1.020000
 20
1.112500
  0
SEQEND
  8
gg1
  0
POLYLINE
  8
gg1
 62
1
 40
0.000000
 41
0.000000
 66
  1
  0
VERTEX
  8
gg1
 10
1.027500
 20
1.620000
  0
VERTEX
  8
gg1
 10
1.042500
 20
1.620000
  0
SEQEND
  8
gg1
  0
POLYLINE
  8
gg1
 62
1
 40
0.000000
 41
0.000000
 66
  1
  0
VERTEX
  8
gg1
 10
1.035000
 20
1.612500
  0
VERTEX
  8
gg1
 10
1.035000
 20
1.627500
  0
SEQEND
  8
gg1
  0
POLYLINE
  8
gg1
 62
1
 40
0.000000
 41
0.000000
 66
  1
  0
VERTEX
  8
gg1
 10
-0.227500
 20
1.030000
  0
VERTEX
  8
gg1
 10
-0.212500
 20
1.030000
  0
SEQEND
  8
gg1
  0
POLYLINE
  8
gg1
 62
1
 40
0.000000
 41
0.000000
 66
  1
  0
VERTEX
  8
gg1
 10
-0.220000
 20
1.022500
  0
VERTEX
  8
gg1
 10
-0.220000
 20
1.037500
  0
SEQEND
  8
gg1
  0
POLYLINE
  8
gg1
 62
1
 40
0.000000
 41
0.000000
 66
  1
  0
VERTEX
  8
gg1
 10
-0.227500
 20
1.070000
  0
VERTEX
  8
gg1
 10
-0.212500
 20
1.070000
  0
SEQEND
  8
gg1
  0
POLYLINE
  8
gg1
 62
1
 40
0.000000
 41
0.000000
 66
  1
  0
VERTEX
  8
gg1
 10
-0.220000
 20
1.062500
  0
VERTEX
  8
gg1
 10
-0.220000
 20
1.077500
  0
SEQEND
  8
gg1
  0
POLYLINE
  8
gg1
 62
1
 40
0.000000
 41
0.000000
 66
  1
  0
VERTEX
  8
gg1
 10
-0.367500
 20
0.420000
  0
VERTEX
  8
gg1
 10
-0.352500
 20
0.420000
  0
SEQEND
  8
gg1
  0
POLYLINE
  8
gg1
 62
1
 40
0.000000
 41
0.000000
 66
  1
  0
VERTEX
  8
gg1
 10
-0.360000
 20
0.412500
  0
VERTEX
  8
gg1
 10
-0.360000
 20
0.427500
  0
SEQEND
  8
gg1
  0
POLYLINE
  8
gg1
 62
1
 40
0.000000
 41
0.000000
 66
  1
  0
VERTEX
  8
gg1
 10
-0.302500
 20
0.215000
  0
VERTEX
  8
gg1
 10
-0.287500
 20
0.215000
  0
SEQEND
  8
gg1
  0
POLYLINE
  8
gg1
 62
1
 40
0.000000
 41
0.000000
 66
  1
  0
VERTEX
  8
gg1
 10
-0.295000
 20
0.207500
  0
VERTEX
  8
gg1
 10
-0.295000
 20
0.222500
  0
SEQEND
  8
gg1
  0
POLYLINE
  8
gg1
 62
1
 40
0.000000
 41
0.000000
 66
  1
  0
VERTEX
  8
gg1
 10
-0.032500
 20
0.290000
  0
VERTEX
  8
gg1
 10
-0.017500
 20
0.290000
  0
SEQEND
  8
gg1
  0
POLYLINE
  8
gg1
 62
1
 40
0.000000
 41
0.000000
 66
  1
  0
VERTEX
  8
gg1
 10
-0.025000
 20
0.282500
  0
VERTEX
  8
gg1
 10
-0.025000
 20
0.297500
  0
SEQEND
  8
gg1
  0
POLYLINE
  8
gg1
 62
1
 40
0.000000
 41
0.000000
 66
  1
  0
VERTEX
  8
gg1
 10
-0.152500
 20
0.500000
  0
VERTEX
  8
gg1
 10
-0.137500
 20
0.500000
  0
SEQEND
  8
gg1
  0
POLYLINE
  8
gg1
 62
1
 40
0.000000
 41
0.000000
 66
  1
  0
VERTEX
  8
gg1
 10
-0.145000
 20
0.492500
  0
VERTEX
  8
gg1
 10
-0.145000
 20
0.507500
  0
SEQEND
  8
gg1
  0
POLYLINE
  8
gg1
 62
1
 40
0.000000
 41
0.000000
 66
  1
  0
VERTEX
  8
gg1
 10
-0.012500
 20
0.505000
  0
VERTEX
  8
gg1
 10
0.002500
 20
0.505000
  0
SEQEND
  8
gg1
  0
POLYLINE
  8
gg1
 62
1
 40
0.000000
 41
0.000000
 66
  1
  0
VERTEX
  8
gg1
 10
-0.005000
 20
0.497500
  0
VERTEX
  8
gg1
 10
-0.005000
 20
0.512500
  0
SEQEND
  8
gg1
  0
POLYLINE
  8
gg1
 62
1
 40
0.000000
 41
0.000000
 66
  1
  0
VERTEX
  8
gg1
 10
-0.012500
 20
0.455000
  0
VERTEX
  8
gg1
 10
0.002500
 20
0.455000
  0
SEQEND
  8
gg1
  0
POLYLINE
  8
gg1
 62
1
 40
0.000000
 41
0.000000
 66
  1
  0
VERTEX
  8
gg1
 10
-0.005000
 20
0.447500
  0
VERTEX
  8
gg1
 10
-0.005000
 20
0.462500
  0
SEQEND
  8
gg1
  0
POLYLINE
  8
gg1
 62
1
 40
0.000000
 41
0.000000
 66
  1
  0
VERTEX
  8
gg1
 10
-0.737500
 20
1.060000
  0
VERTEX
  8
gg1
 10
-0.722500
 20
1.060000
  0
SEQEND
  8
gg1
  0
POLYLINE
  8
gg1
 62
1
 40
0.000000
 41
0.000000
 66
  1
  0
VERTEX
  8
gg1
 10
-0.730000
 20
1.052500
  0
VERTEX
  8
gg1
 10
-0.730000
 20
1.067500
  0
SEQEND
  8
gg1
  0
POLYLINE
  8
gg1
 62
1
 40
0.000000
 41
0.000000
 66
  1
  0
VERTEX
  8
gg1
 10
-0.712500
 20
1.035000
  0
VERTEX
  8
gg1
 10
-0.697500
 20
1.035000
  0
SEQEND
  8
gg1
  0
POLYLINE
  8
gg1
 62
1
 40
0.000000
 41
0.000000
 66
  1
  0
VERTEX
  8
gg1
 10
-0.705000
 20
1.027500
  0
VERTEX
  8
gg1
 10
-0.705000
 20
1.042500
  0
SEQEND
  8
gg1
  0
POLYLINE
  8
gg1
 62
1
 40
0.000000
 41
0.000000
 66
  1
  0
VERTEX
  8
gg1
 10
-0.687500
 20
1.010000
  0
VERTEX
  8
gg1
 10
-0.672500
 20
1.010000
  0
SEQEND
  8
gg1
  0
POLYLINE
  8
gg1
 62
1
 40
0.000000
 41
0.000000
 66
  1
  0
VERTEX
  8
gg1
 10
-0.680000
 20
1.002500
  0
VERTEX
  8
gg1
 10
-0.680000
 20
1.017500
  0
SEQEND
  8
gg1
  0
POLYLINE
  8
gg1
 62
1
 40
0.000000
 41
0.000000
 66
  1
  0
VERTEX
  8
gg1
 10
0.632500
 20
2.010000
  0
VERTEX
  8
gg1
 10
0.647500
 20
2.010000
  0
SEQEND
  8
gg1
  0
POLYLINE
  8
gg1
 62
1
 40
0.000000
 41
0.000000
 66
  1
  0
VERTEX
  8
gg1
 10
0.640000
 20
2.002500
  0
VERTEX
  8
gg1
 10
0.640000
 20
2.017500
  0
SEQEND
  8
gg1
  0
POLYLINE
  8
gg1
 62
1
 40
0.000000
 41
0.000000
 66
  1
  0
VERTEX
  8
gg1
 10
0.722500
 20
0.135000
  0
VERTEX
  8
gg1
 10
0.737500
 20
0.135000
  0
SEQEND
  8
gg1
  0
POLYLINE
  8
gg1
 62
1
 40
0.000000
 41
0.000000
 66
  1
  0
VERTEX
  8
gg1
 10
0.730000
 20
0.127500
  0
VERTEX
  8
gg1
 10
0.730000
 20
0.142500
  0
SEQEND
  8
gg1
  0
POLYLINE
  8
gg1
 62
1
 40
0.000000
 41
0.000000
 66
  1
  0
VERTEX
  8
gg1
 10
1.032500
 20
0.135000
  0
VERTEX
  8
gg1
 10
1.047500
 20
0.135000
  0
SEQEND
  8
gg1
  0
POLYLINE
  8
gg1
 62
1
 40
0.000000
 41
0.000000
 66
  1
  0
VERTEX
  8
gg1
 10
1.040000
 20
0.127500
  0
VERTEX
  8
gg1
 10
1.040000
 20
0.142500
  0
SEQEND
  8
gg1
  0
POLYLINE
  8
gg1
 62
1
 40
0.000000
 41
0.000000
 66
  1
  0
VERTEX
  8
gg1
 10
0.877500
 20
0.215000
  0
VERTEX
  8
gg1
 10
0.892500
 20
0.215000
  0
SEQEND
  8
gg1
  0
POLYLINE
  8
gg1
 62
1
 40
0.000000
 41
0.000000
 66
  1
  0
VERTEX
  8
gg1
 10
0.885000
 20
0.207500
  0
VERTEX
  8
gg1
 10
0.885000
 20
0.222500
  0
SEQEND
  8
gg1
  0
POLYLINE
  8
gg1
 62
1
 40
0.000000
 41
0.000000
 66
  1
  0
VERTEX
  8
gg1
 10
0.722500
 20
0.215000
  0
VERTEX
  8
gg1
 10
0.737500
 20
0.215000
  0
SEQEND
  8
gg1
  0
POLYLINE
  8
gg1
 62
1
 40
0.000000
 41
0.000000
 66
  1
  0
VERTEX
  8
gg1
 10
0.730000
 20
0.207500
  0
VERTEX
  8
gg1
 10
0.730000
 20
0.222500
  0
SEQEND
  8
gg1
  0
POLYLINE
  8
gg1
 62
1
 40
0.000000
 41
0.000000
 66
  1
  0
VERTEX
  8
gg1
 10
1.032500
 20
0.215000
  0
VERTEX
  8
gg1
 10
1.047500
 20
0.215000
  0
SEQEND
  8
gg1
  0
POLYLINE
  8
gg1
 62
1
 40
0.000000
 41
0.000000
 66
  1
  0
VERTEX
  8
gg1
 10
1.040000
 20
0.207500
  0
VERTEX
  8
gg1
 10
1.040000
 20
0.222500
  0
SEQEND
  8
gg1
  0
POLYLINE
  8
gg1
 62
1
 40
0.000000
 41
0.000000
 66
  1
  0
VERTEX
  8
gg1
 10
1.217500
 20
0.510000
  0
VERTEX
  8
gg1
 10
1.232500
 20
0.510000
  0
SEQEND
  8
gg1
  0
POLYLINE
  8
gg1
 62
1
 40
0.000000
 41
0.000000
 66
  1
  0
VERTEX
  8
gg1
 10
1.225000
 20
0.502500
  0
VERTEX
  8
gg1
 10
1.225000
 20
0.517500
  0
SEQEND
  8
gg1
  0
POLYLINE
  8
gg1
 62
1
 40
0.000000
 41
0.000000
 66
  1
  0
VERTEX
  8
gg1
 10
1.217500
 20
1.335000
  0
VERTEX
  8
gg1
 10
1.232500
 20
1.335000
  0
SEQEND
  8
gg1
  0
POLYLINE
  8
gg1
 62
1
 40
0.000000
 41
0.000000
 66
  1
  0
VERTEX
  8
gg1
 10
1.225000
 20
1.327500
  0
VERTEX
  8
gg1
 10
1.225000
 20
1.342500
  0
SEQEND
  8
gg1
  0
POLYLINE
  8
gg1
 62
1
 40
0.000000
 41
0.000000
 66
  1
  0
VERTEX
  8
gg1
 10
1.262500
 20
1.620000
  0
VERTEX
  8
gg1
 10
1.277500
 20
1.620000
  0
SEQEND
  8
gg1
  0
POLYLINE
  8
gg1
 62
1
 40
0.000000
 41
0.000000
 66
  1
  0
VERTEX
  8
gg1
 10
1.270000
 20
1.612500
  0
VERTEX
  8
gg1
 10
1.270000
 20
1.627500
  0
SEQEND
  8
gg1
  0
POLYLINE
  8
gg1
 62
1
 40
0.000000
 41
0.000000
 66
  1
  0
VERTEX
  8
gg1
 10
1.027500
 20
1.785000
  0
VERTEX
  8
gg1
 10
1.042500
 20
1.785000
  0
SEQEND
  8
gg1
  0
POLYLINE
  8
gg1
 62
1
 40
0.000000
 41
0.000000
 66
  1
  0
VERTEX
  8
gg1
 10
1.035000
 20
1.777500
  0
VERTEX
  8
gg1
 10
1.035000
 20
1.792500
  0
SEQEND
  8
gg1
  0
POLYLINE
  8
gg1
 62
1
 40
0.000000
 41
0.000000
 66
  1
  0
VERTEX
  8
gg1
 10
1.262500
 20
1.785000
  0
VERTEX
  8
gg1
 10
1.277500
 20
1.785000
  0
SEQEND
  8
gg1
  0
POLYLINE
  8
gg1
 62
1
 40
0.000000
 41
0.000000
 66
  1
  0
VERTEX
  8
gg1
 10
1.270000
 20
1.777500
  0
VERTEX
  8
gg1
 10
1.270000
 20
1.792500
  0
SEQEND
  8
gg1
  0
POLYLINE
  8
gg1
 62
1
 40
0.000000
 41
0.000000
 66
  1
  0
VERTEX
  8
gg1
 10
-0.527500
 20
1.060000
  0
VERTEX
  8
gg1
 10
-0.512500
 20
1.060000
  0
SEQEND
  8
gg1
  0
POLYLINE
  8
gg1
 62
1
 40
0.000000
 41
0.000000
 66
  1
  0
VERTEX
  8
gg1
 10
-0.520000
 20
1.052500
  0
VERTEX
  8
gg1
 10
-0.520000
 20
1.067500
  0
SEQEND
  8
gg1
  0
POLYLINE
  8
gg1
 62
1
 40
0.000000
 41
0.000000
 66
  1
  0
VERTEX
  8
gg1
 10
-0.557500
 20
1.090000
  0
VERTEX
  8
gg1
 10
-0.542500
 20
1.090000
  0
SEQEND
  8
gg1
  0
POLYLINE
  8
gg1
 62
1
 40
0.000000
 41
0.000000
 66
  1
  0
VERTEX
  8
gg1
 10
-0.550000
 20
1.082500
  0
VERTEX
  8
gg1
 10
-0.550000
 20
1.097500
  0
SEQEND
  8
gg1
  0
POLYLINE
  8
gg1
 62
1
 40
0.000000
 41
0.000000
 66
  1
  0
VERTEX
  8
gg1
 10
-0.597500
 20
1.210000
  0
VERTEX
  8
gg1
 10
-0.582500
 20
1.210000
  0
SEQEND
  8
gg1
  0
POLYLINE
  8
gg1
 62
1
 40
0.000000
 41
0.000000
 66
  1
  0
VERTEX
  8
gg1
 10
-0.590000
 20
1.202500
  0
VERTEX
  8
gg1
 10
-0.590000
 20
1.217500
  0
SEQEND
  8
gg1
  0
POLYLINE
  8
gg1
 62
1
 40
0.000000
 41
0.000000
 66
  1
  0
VERTEX
  8
gg1
 10
-1.312500
 20
1.715000
  0
VERTEX
  8
gg1
 10
-1.297500
 20
1.715000
  0
SEQEND
  8
gg1
  0
POLYLINE
  8
gg1
 62
1
 40
0.000000
 41
0.000000
 66
  1
  0
VERTEX
  8
gg1
 10
-1.305000
 20
1.707500
  0
VERTEX
  8
gg1
 10
-1.305000
 20
1.722500
  0
SEQEND
  8
gg1
  0
POLYLINE
  8
gg1
 62
1
 40
0.000000
 41
0.000000
 66
  1
  0
VERTEX
  8
gg1
 10
-0.907500
 20
2.015000
  0
VERTEX
  8
gg1
 10
-0.892500
 20
2.015000
  0
SEQEND
  8
gg1
  0
POLYLINE
  8
gg1
 62
1
 40
0.000000
 41
0.000000
 66
  1
  0
VERTEX
  8
gg1
 10
-0.900000
 20
2.007500
  0
VERTEX
  8
gg1
 10
-0.900000
 20
2.022500
  0
SEQEND
  8
gg1
  0
POLYLINE
  8
gg1
 62
1
 40
0.000000
 41
0.000000
 66
  1
  0
VERTEX
  8
gg1
 10
-0.947500
 20
2.150000
  0
VERTEX
  8
gg1
 10
-0.932500
 20
2.150000
  0
SEQEND
  8
gg1
  0
POLYLINE
  8
gg1
 62
1
 40
0.000000
 41
0.000000
 66
  1
  0
VERTEX
  8
gg1
 10
-0.940000
 20
2.142500
  0
VERTEX
  8
gg1
 10
-0.940000
 20
2.157500
  0
SEQEND
  8
gg1
  0
POLYLINE
  8
gg1
 62
1
 40
0.000000
 41
0.000000
 66
  1
  0
VERTEX
  8
gg1
 10
-0.692500
 20
2.150000
  0
VERTEX
  8
gg1
 10
-0.677500
 20
2.150000
  0
SEQEND
  8
gg1
  0
POLYLINE
  8
gg1
 62
1
 40
0.000000
 41
0.000000
 66
  1
  0
VERTEX
  8
gg1
 10
-0.685000
 20
2.142500
  0
VERTEX
  8
gg1
 10
-0.685000
 20
2.157500
  0
SEQEND
  8
gg1
  0
POLYLINE
  8
gg1
 62
1
 40
0.000000
 41
0.000000
 66
  1
  0
VERTEX
  8
gg1
 10
-0.457500
 20
2.015000
  0
VERTEX
  8
gg1
 10
-0.442500
 20
2.015000
  0
SEQEND
  8
gg1
  0
POLYLINE
  8
gg1
 62
1
 40
0.000000
 41
0.000000
 66
  1
  0
VERTEX
  8
gg1
 10
-0.450000
 20
2.007500
  0
VERTEX
  8
gg1
 10
-0.450000
 20
2.022500
  0
SEQEND
  8
gg1
  0
POLYLINE
  8
gg1
 62
1
 40
0.000000
 41
0.000000
 66
  1
  0
VERTEX
  8
gg1
 10
-0.457500
 20
2.090000
  0
VERTEX
  8
gg1
 10
-0.442500
 20
2.090000
  0
SEQEND
  8
gg1
  0
POLYLINE
  8
gg1
 62
1
 40
0.000000
 41
0.000000
 66
  1
  0
VERTEX
  8
gg1
 10
-0.450000
 20
2.082500
  0
VERTEX
  8
gg1
 10
-0.450000
 20
2.097500
  0
SEQEND
  8
gg1
  0
POLYLINE
  8
gg1
 62
1
 40
0.000000
 41
0.000000
 66
  1
  0
VERTEX
  8
gg1
 10
-0.147500
 20
2.015000
  0
VERTEX
  8
gg1
 10
-0.132500
 20
2.015000
  0
SEQEND
  8
gg1
  0
POLYLINE
  8
gg1
 62
1
 40
0.000000
 41
0.000000
 66
  1
  0
VERTEX
  8
gg1
 10
-0.140000
 20
2.007500
  0
VERTEX
  8
gg1
 10
-0.140000
 20
2.022500
  0
SEQEND
  8
gg1
  0
POLYLINE
  8
gg1
 62
1
 40
0.000000
 41
0.000000
 66
  1
  0
VERTEX
  8
gg1
 10
-0.372500
 20
1.535000
  0
VERTEX
  8
gg1
 10
-0.357500
 20
1.535000
  0
SEQEND
  8
gg1
  0
POLYLINE
  8
gg1
 62
1
 40
0.000000
 41
0.000000
 66
  1
  0
VERTEX
  8
gg1
 10
-0.365000
 20
1.527500
  0
VERTEX
  8
gg1
 10
-0.365000
 20
1.542500
  0
SEQEND
  8
gg1
  0
POLYLINE
  8
gg1
 62
1
 40
0.000000
 41
0.000000
 66
  1
  0
VERTEX
  8
gg1
 10
-0.372500
 20
1.755000
  0
VERTEX
  8
gg1
 10
-0.357500
 20
1.755000
  0
SEQEND
  8
gg1
  0
POLYLINE
  8
gg1
 62
1
 40
0.000000
 41
0.000000
 66
  1
  0
VERTEX
  8
gg1
 10
-0.365000
 20
1.747500
  0
VERTEX
  8
gg1
 10
-0.365000
 20
1.762500
  0
SEQEND
  8
gg1
  0
POLYLINE
  8
gg1
 62
1
 40
0.000000
 41
0.000000
 66
  1
  0
VERTEX
  8
gg1
 10
0.547500
 20
1.730000
  0
VERTEX
  8
gg1
 10
0.562500
 20
1.730000
  0
SEQEND
  8
gg1
  0
POLYLINE
  8
gg1
 62
1
 40
0.000000
 41
0.000000
 66
  1
  0
VERTEX
  8
gg1
 10
0.555000
 20
1.722500
  0
VERTEX
  8
gg1
 10
0.555000
 20
1.737500
  0
SEQEND
  8
gg1
  0
POLYLINE
  8
gg1
 62
1
 40
0.000000
 41
0.000000
 66
  1
  0
VERTEX
  8
gg1
 10
0.712500
 20
1.815000
  0
VERTEX
  8
gg1
 10
0.727500
 20
1.815000
  0
SEQEND
  8
gg1
  0
POLYLINE
  8
gg1
 62
1
 40
0.000000
 41
0.000000
 66
  1
  0
VERTEX
  8
gg1
 10
0.720000
 20
1.807500
  0
VERTEX
  8
gg1
 10
0.720000
 20
1.822500
  0
SEQEND
  8
gg1
  0
POLYLINE
  8
gg1
 62
1
 40
0.000000
 41
0.000000
 66
  1
  0
VERTEX
  8
gg1
 10
0.617500
 20
2.455000
  0
VERTEX
  8
gg1
 10
0.632500
 20
2.455000
  0
SEQEND
  8
gg1
  0
POLYLINE
  8
gg1
 62
1
 40
0.000000
 41
0.000000
 66
  1
  0
VERTEX
  8
gg1
 10
0.625000
 20
2.447500
  0
VERTEX
  8
gg1
 10
0.625000
 20
2.462500
  0
SEQEND
  8
gg1
  0
POLYLINE
  8
gg1
 62
1
 40
0.000000
 41
0.000000
 66
  1
  0
VERTEX
  8
gg1
 10
0.617500
 20
2.860000
  0
VERTEX
  8
gg1
 10
0.632500
 20
2.860000
  0
SEQEND
  8
gg1
  0
POLYLINE
  8
gg1
 62
1
 40
0.000000
 41
0.000000
 66
  1
  0
VERTEX
  8
gg1
 10
0.625000
 20
2.852500
  0
VERTEX
  8
gg1
 10
0.625000
 20
2.867500
  0
SEQEND
  8
gg1
  0
POLYLINE
  8
gg1
 62
1
 40
0.000000
 41
0.000000
 66
  1
  0
VERTEX
  8
gg1
 10
0.617500
 20
2.725000
  0
VERTEX
  8
gg1
 10
0.632500
 20
2.725000
  0
SEQEND
  8
gg1
  0
POLYLINE
  8
gg1
 62
1
 40
0.000000
 41
0.000000
 66
  1
  0
VERTEX
  8
gg1
 10
0.625000
 20
2.717500
  0
VERTEX
  8
gg1
 10
0.625000
 20
2.732500
  0
SEQEND
  8
gg1
  0
POLYLINE
  8
gg1
 62
1
 40
0.000000
 41
0.000000
 66
  1
  0
VERTEX
  8
gg1
 10
0.617500
 20
2.590000
  0
VERTEX
  8
gg1
 10
0.632500
 20
2.590000
  0
SEQEND
  8
gg1
  0
POLYLINE
  8
gg1
 62
1
 40
0.000000
 41
0.000000
 66
  1
  0
VERTEX
  8
gg1
 10
0.625000
 20
2.582500
  0
VERTEX
  8
gg1
 10
0.625000
 20
2.597500
  0
SEQEND
  8
gg1
  0
POLYLINE
  8
gg1
 62
1
 40
0.000000
 41
0.000000
 66
  1
  0
VERTEX
  8
gg1
 10
1.322500
 20
2.455000
  0
VERTEX
  8
gg1
 10
1.337500
 20
2.455000
  0
SEQEND
  8
gg1
  0
POLYLINE
  8
gg1
 62
1
 40
0.000000
 41
0.000000
 66
  1
  0
VERTEX
  8
gg1
 10
1.330000
 20
2.447500
  0
VERTEX
  8
gg1
 10
1.330000
 20
2.462500
  0
SEQEND
  8
gg1
  0
POLYLINE
  8
gg1
 62
1
 40
0.000000
 41
0.000000
 66
  1
  0
VERTEX
  8
gg1
 10
1.322500
 20
2.860000
  0
VERTEX
  8
gg1
 10
1.337500
 20
2.860000
  0
SEQEND
  8
gg1
  0
POLYLINE
  8
gg1
 62
1
 40
0.000000
 41
0.000000
 66
  1
  0
VERTEX
  8
gg1
 10
1.330000
 20
2.852500
  0
VERTEX
  8
gg1
 10
1.330000
 20
2.867500
  0
SEQEND
  8
gg1
  0
POLYLINE
  8
gg1
 62
1
 40
0.000000
 41
0.000000
 66
  1
  0
VERTEX
  8
gg1
 10
1.437500
 20
2.860000
  0
VERTEX
  8
gg1
 10
1.452500
 20
2.860000
  0
SEQEND
  8
gg1
  0
POLYLINE
  8
gg1
 62
1
 40
0.000000
 41
0.000000
 66
  1
  0
VERTEX
  8
gg1
 10
1.445000
 20
2.852500
  0
VERTEX
  8
gg1
 10
1.445000
 20
2.867500
  0
SEQEND
  8
gg1
  0
POLYLINE
  8
gg1
 62
1
 40
0.000000
 41
0.000000
 66
  1
  0
VERTEX
  8
gg1
 10
1.437500
 20
2.455000
  0
VERTEX
  8
gg1
 10
1.452500
 20
2.455000
  0
SEQEND
  8
gg1
  0
POLYLINE
  8
gg1
 62
1
 40
0.000000
 41
0.000000
 66
  1
  0
VERTEX
  8
gg1
 10
1.445000
 20
2.447500
  0
VERTEX
  8
gg1
 10
1.445000
 20
2.462500
  0
SEQEND
  8
gg1
  0
POLYLINE
  8
gg1
 62
1
 40
0.000000
 41
0.000000
 66
  1
  0
VERTEX
  8
gg1
 10
-1.452500
 20
2.455000
  0
VERTEX
  8
gg1
 10
-1.437500
 20
2.455000
  0
SEQEND
  8
gg1
  0
POLYLINE
  8
gg1
 62
1
 40
0.000000
 41
0.000000
 66
  1
  0
VERTEX
  8
gg1
 10
-1.445000
 20
2.447500
  0
VERTEX
  8
gg1
 10
-1.445000
 20
2.462500
  0
SEQEND
  8
gg1
  0
POLYLINE
  8
gg1
 62
1
 40
0.000000
 41
0.000000
 66
  1
  0
VERTEX
  8
gg1
 10
-1.452500
 20
2.860000
  0
VERTEX
  8
gg1
 10
-1.437500
 20
2.860000
  0
SEQEND
  8
gg1
  0
POLYLINE
  8
gg1
 62
1
 40
0.000000
 41
0.000000
 66
  1
  0
VERTEX
  8
gg1
 10
-1.445000
 20
2.852500
  0
VERTEX
  8
gg1
 10
-1.445000
 20
2.867500
  0
SEQEND
  8
gg1
  0
POLYLINE
  8
gg1
 62
1
 40
0.000000
 41
0.000000
 66
  1
  0
VERTEX
  8
gg1
 10
-1.337500
 20
2.860000
  0
VERTEX
  8
gg1
 10
-1.322500
 20
2.860000
  0
SEQEND
  8
gg1
  0
POLYLINE
  8
gg1
 62
1
 40
0.000000
 41
0.000000
 66
  1
  0
VERTEX
  8
gg1
 10
-1.330000
 20
2.852500
  0
VERTEX
  8
gg1
 10
-1.330000
 20
2.867500
  0
SEQEND
  8
gg1
  0
POLYLINE
  8
gg1
 62
1
 40
0.000000
 41
0.000000
 66
  1
  0
VERTEX
  8
gg1
 10
-1.337500
 20
2.455000
  0
VERTEX
  8
gg1
 10
-1.322500
 20
2.455000
  0
SEQEND
  8
gg1
  0
POLYLINE
  8
gg1
 62
1
 40
0.000000
 41
0.000000
 66
  1
  0
VERTEX
  8
gg1
 10
-1.330000
 20
2.447500
  0
VERTEX
  8
gg1
 10
-1.330000
 20
2.462500
  0
SEQEND
  8
gg1
  0
POLYLINE
  8
gg1
 62
1
 40
0.000000
 41
0.000000
 66
  1
  0
VERTEX
  8
gg1
 10
-1.032500
 20
2.360000
  0
VERTEX
  8
gg1
 10
-1.017500
 20
2.360000
  0
SEQEND
  8
gg1
  0
POLYLINE
  8
gg1
 62
1
 40
0.000000
 41
0.000000
 66
  1
  0
VERTEX
  8
gg1
 10
-1.025000
 20
2.352500
  0
VERTEX
  8
gg1
 10
-1.025000
 20
2.367500
  0
SEQEND
  8
gg1
  0
POLYLINE
  8
gg1
 62
1
 40
0.000000
 41
0.000000
 66
  1
  0
VERTEX
  8
gg1
 10
-1.032500
 20
2.685000
  0
VERTEX
  8
gg1
 10
-1.017500
 20
2.685000
  0
SEQEND
  8
gg1
  0
POLYLINE
  8
gg1
 62
1
 40
0.000000
 41
0.000000
 66
  1
  0
VERTEX
  8
gg1
 10
-1.025000
 20
2.677500
  0
VERTEX
  8
gg1
 10
-1.025000
 20
2.692500
  0
SEQEND
  8
gg1
  0
POLYLINE
  8
gg1
 62
1
 40
0.000000
 41
0.000000
 66
  1
  0
VERTEX
  8
gg1
 10
0.092500
 20
1.880000
  0
VERTEX
  8
gg1
 10
0.107500
 20
1.880000
  0
SEQEND
  8
gg1
  0
POLYLINE
  8
gg1
 62
1
 40
0.000000
 41
0.000000
 66
  1
  0
VERTEX
  8
gg1
 10
0.100000
 20
1.872500
  0
VERTEX
  8
gg1
 10
0.100000
 20
1.887500
  0
SEQEND
  8
gg1
  0
POLYLINE
  8
gg1
 62
1
 40
0.000000
 41
0.000000
 66
  1
  0
VERTEX
  8
gg1
 10
0.427500
 20
2.710000
  0
VERTEX
  8
gg1
 10
0.442500
 20
2.710000
  0
SEQEND
  8
gg1
  0
POLYLINE
  8
gg1
 62
1
 40
0.000000
 41
0.000000
 66
  1
  0
VERTEX
  8
gg1
 10
0.435000
 20
2.702500
  0
VERTEX
  8
gg1
 10
0.435000
 20
2.717500
  0
SEQEND
  8
gg1
  0
POLYLINE
  8
gg1
 62
1
 40
0.000000
 41
0.000000
 66
  1
  0
VERTEX
  8
gg1
 10
0.429700
 20
2.830000
  0
VERTEX
  8
gg1
 10
0.444700
 20
2.830000
  0
SEQEND
  8
gg1
  0
POLYLINE
  8
gg1
 62
1
 40
0.000000
 41
0.000000
 66
  1
  0
VERTEX
  8
gg1
 10
0.437200
 20
2.822500
  0
VERTEX
  8
gg1
 10
0.437200
 20
2.837500
  0
SEQEND
  8
gg1
  0
POLYLINE
  8
gg1
 62
1
 40
0.000000
 41
0.000000
 66
  1
  0
VERTEX
  8
gg1
 10
0.367500
 20
2.830000
  0
VERTEX
  8
gg1
 10
0.382500
 20
2.830000
  0
SEQEND
  8
gg1
  0
POLYLINE
  8
gg1
 62
1
 40
0.000000
 41
0.000000
 66
  1
  0
VERTEX
  8
gg1
 10
0.375000
 20
2.822500
  0
VERTEX
  8
gg1
 10
0.375000
 20
2.837500
  0
SEQEND
  8
gg1
  0
POLYLINE
  8
gg1
 62
1
 40
0.000000
 41
0.000000
 66
  1
  0
VERTEX
  8
gg1
 10
0.177500
 20
2.810000
  0
VERTEX
  8
gg1
 10
0.192500
 20
2.810000
  0
SEQEND
  8
gg1
  0
POLYLINE
  8
gg1
 62
1
 40
0.000000
 41
0.000000
 66
  1
  0
VERTEX
  8
gg1
 10
0.185000
 20
2.802500
  0
VERTEX
  8
gg1
 10
0.185000
 20
2.817500
  0
SEQEND
  8
gg1
  0
POLYLINE
  8
gg1
 62
1
 40
0.000000
 41
0.000000
 66
  1
  0
VERTEX
  8
gg1
 10
0.107500
 20
2.740000
  0
VERTEX
  8
gg1
 10
0.122500
 20
2.740000
  0
SEQEND
  8
gg1
  0
POLYLINE
  8
gg1
 62
1
 40
0.000000
 41
0.000000
 66
  1
  0
VERTEX
  8
gg1
 10
0.115000
 20
2.732500
  0
VERTEX
  8
gg1
 10
0.115000
 20
2.747500
  0
SEQEND
  8
gg1
  0
POLYLINE
  8
gg1
 62
1
 40
0.000000
 41
0.000000
 66
  1
  0
VERTEX
  8
gg1
 10
0.142500
 20
2.775000
  0
VERTEX
  8
gg1
 10
0.157500
 20
2.775000
  0
SEQEND
  8
gg1
  0
POLYLINE
  8
gg1
 62
1
 40
0.000000
 41
0.000000
 66
  1
  0
VERTEX
  8
gg1
 10
0.150000
 20
2.767500
  0
VERTEX
  8
gg1
 10
0.150000
 20
2.782500
  0
SEQEND
  8
gg1
  0
POLYLINE
  8
gg1
 62
1
 40
0.000000
 41
0.000000
 66
  1
  0
VERTEX
  8
gg1
 10
-0.562500
 20
2.400000
  0
VERTEX
  8
gg1
 10
-0.547500
 20
2.400000
  0
SEQEND
  8
gg1
  0
POLYLINE
  8
gg1
 62
1
 40
0.000000
 41
0.000000
 66
  1
  0
VERTEX
  8
gg1
 10
-0.555000
 20
2.392500
  0
VERTEX
  8
gg1
 10
-0.555000
 20
2.407500
  0
SEQEND
  8
gg1
  0
POLYLINE
  8
gg1
 62
1
 40
0.000000
 41
0.000000
 66
  1
  0
VERTEX
  8
gg1
 10
-0.527500
 20
2.435000
  0
VERTEX
  8
gg1
 10
-0.512500
 20
2.435000
  0
SEQEND
  8
gg1
  0
POLYLINE
  8
gg1
 62
1
 40
0.000000
 41
0.000000
 66
  1
  0
VERTEX
  8
gg1
 10
-0.520000
 20
2.427500
  0
VERTEX
  8
gg1
 10
-0.520000
 20
2.442500
  0
SEQEND
  8
gg1
  0
POLYLINE
  8
gg1
 62
1
 40
0.000000
 41
0.000000
 66
  1
  0
VERTEX
  8
gg1
 10
-0.407500
 20
2.570000
  0
VERTEX
  8
gg1
 10
-0.392500
 20
2.570000
  0
SEQEND
  8
gg1
  0
POLYLINE
  8
gg1
 62
1
 40
0.000000
 41
0.000000
 66
  1
  0
VERTEX
  8
gg1
 10
-0.400000
 20
2.562500
  0
VERTEX
  8
gg1
 10
-0.400000
 20
2.577500
  0
SEQEND
  8
gg1
  0
POLYLINE
  8
gg1
 62
1
 40
0.000000
 41
0.000000
 66
  1
  0
VERTEX
  8
gg1
 10
-0.442500
 20
2.570000
  0
VERTEX
  8
gg1
 10
-0.427500
 20
2.570000
  0
SEQEND
  8
gg1
  0
POLYLINE
  8
gg1
 62
1
 40
0.000000
 41
0.000000
 66
  1
  0
VERTEX
  8
gg1
 10
-0.435000
 20
2.562500
  0
VERTEX
  8
gg1
 10
-0.435000
 20
2.577500
  0
SEQEND
  8
gg1
  0
POLYLINE
  8
gg1
 62
1
 40
0.000000
 41
0.000000
 66
  1
  0
VERTEX
  8
gg1
 10
-0.702500
 20
2.435000
  0
VERTEX
  8
gg1
 10
-0.687500
 20
2.435000
  0
SEQEND
  8
gg1
  0
POLYLINE
  8
gg1
 62
1
 40
0.000000
 41
0.000000
 66
  1
  0
VERTEX
  8
gg1
 10
-0.695000
 20
2.427500
  0
VERTEX
  8
gg1
 10
-0.695000
 20
2.442500
  0
SEQEND
  8
gg1
  0
POLYLINE
  8
gg1
 62
1
 40
0.000000
 41
0.000000
 66
  1
  0
VERTEX
  8
gg1
 10
-0.572500
 20
2.640000
  0
VERTEX
  8
gg1
 10
-0.557500
 20
2.640000
  0
SEQEND
  8
gg1
  0
POLYLINE
  8
gg1
 62
1
 40
0.000000
 41
0.000000
 66
  1
  0
VERTEX
  8
gg1
 10
-0.565000
 20
2.632500
  0
VERTEX
  8
gg1
 10
-0.565000
 20
2.647500
  0
SEQEND
  8
gg1
  0
POLYLINE
  8
gg1
 62
1
 40
0.000000
 41
0.000000
 66
  1
  0
VERTEX
  8
gg1
 10
-0.442500
 20
2.845000
  0
VERTEX
  8
gg1
 10
-0.427500
 20
2.845000
  0
SEQEND
  8
gg1
  0
POLYLINE
  8
gg1
 62
1
 40
0.000000
 41
0.000000
 66
  1
  0
VERTEX
  8
gg1
 10
-0.435000
 20
2.837500
  0
VERTEX
  8
gg1
 10
-0.435000
 20
2.852500
  0
SEQEND
  8
gg1
  0
POLYLINE
  8
gg1
 62
1
 40
0.000000
 41
0.000000
 66
  1
  0
VERTEX
  8
gg1
 10
-0.377500
 20
2.845000
  0
VERTEX
  8
gg1
 10
-0.362500
 20
2.845000
  0
SEQEND
  8
gg1
  0
POLYLINE
  8
gg1
 62
1
 40
0.000000
 41
0.000000
 66
  1
  0
VERTEX
  8
gg1
 10
-0.370000
 20
2.837500
  0
VERTEX
  8
gg1
 10
-0.370000
 20
2.852500
  0
SEQEND
  8
gg1
  0
POLYLINE
  8
gg1
 62
1
 40
0.000000
 41
0.000000
 66
  1
  0
VERTEX
  8
gg1
 10
-0.157500
 20
2.810000
  0
VERTEX
  8
gg1
 10
-0.142500
 20
2.810000
  0
SEQEND
  8
gg1
  0
POLYLINE
  8
gg1
 62
1
 40
0.000000
 41
0.000000
 66
  1
  0
VERTEX
  8
gg1
 10
-0.150000
 20
2.802500
  0
VERTEX
  8
gg1
 10
-0.150000
 20
2.817500
  0
SEQEND
  8
gg1
  0
POLYLINE
  8
gg1
 62
1
 40
0.000000
 41
0.000000
 66
  1
  0
VERTEX
  8
gg1
 10
-0.057500
 20
2.810000
  0
VERTEX
  8
gg1
 10
-0.042500
 20
2.810000
  0
SEQEND
  8
gg1
  0
POLYLINE
  8
gg1
 62
1
 40
0.000000
 41
0.000000
 66
  1
  0
VERTEX
  8
gg1
 10
-0.050000
 20
2.802500
  0
VERTEX
  8
gg1
 10
-0.050000
 20
2.817500
  0
SEQEND
  8
gg1
  0
POLYLINE
  8
gg1
 62
1
 40
0.000000
 41
0.000000
 66
  1
  0
VERTEX
  8
gg1
 10
0.392500
 20
2.710000
  0
VERTEX
  8
gg1
 10
0.407500
 20
2.710000
  0
SEQEND
  8
gg1
  0
POLYLINE
  8
gg1
 62
1
 40
0.000000
 41
0.000000
 66
  1
  0
VERTEX
  8
gg1
 10
0.400000
 20
2.702500
  0
VERTEX
  8
gg1
 10
0.400000
 20
2.717500
  0
SEQEND
  8
gg1
  0
POLYLINE
  8
gg1
 62
1
 40
0.000000
 41
0.000000
 66
  1
  0
VERTEX
  8
gg1
 10
-0.107500
 20
2.810000
  0
VERTEX
  8
gg1
 10
-0.092500
 20
2.810000
  0
SEQEND
  8
gg1
  0
POLYLINE
  8
gg1
 62
1
 40
0.000000
 41
0.000000
 66
  1
  0
VERTEX
  8
gg1
 10
-0.100000
 20
2.802500
  0
VERTEX
  8
gg1
 10
-0.100000
 20
2.817500
  0
SEQEND
  8
gg1
  0
POLYLINE
  8
gg1
 62
1
 40
0.000000
 41
0.000000
 66
  1
  0
VERTEX
  8
gg1
 10
-0.412500
 20
2.624300
  0
VERTEX
  8
gg1
 10
-0.397500
 20
2.624300
  0
SEQEND
  8
gg1
  0
POLYLINE
  8
gg1
 62
1
 40
0.000000
 41
0.000000
 66
  1
  0
VERTEX
  8
gg1
 10
-0.405000
 20
2.616800
  0
VERTEX
  8
gg1
 10
-0.405000
 20
2.631800
  0
SEQEND
  8
gg1
  0
POLYLINE
  8
gg1
 62
1
 40
0.000000
 41
0.000000
 66
  1
  0
VERTEX
  8
gg1
 10
-0.412500
 20
2.655700
  0
VERTEX
  8
gg1
 10
-0.397500
 20
2.655700
  0
SEQEND
  8
gg1
  0
POLYLINE
  8
gg1
 62
1
 40
0.000000
 41
0.000000
 66
  1
  0
VERTEX
  8
gg1
 10
-0.405000
 20
2.648200
  0
VERTEX
  8
gg1
 10
-0.405000
 20
2.663200
  0
SEQEND
  8
gg1
  0
POLYLINE
  8
gg1
 62
1
 40
0.000000
 41
0.000000
 66
  1
  0
VERTEX
  8
gg1
 10
-0.139000
 20
0.305700
  0
VERTEX
  8
gg1
 10
-0.124000
 20
0.305700
  0
SEQEND
  8
gg1
  0
POLYLINE
  8
gg1
 62
1
 40
0.000000
 41
0.000000
 66
  1
  0
VERTEX
  8
gg1
 10
-0.131500
 20
0.298200
  0
VERTEX
  8
gg1
 10
-0.131500
 20
0.313200
  0
SEQEND
  8
gg1
  0
POLYLINE
  8
gg1
 62
1
 40
0.000000
 41
0.000000
 66
  1
  0
VERTEX
  8
gg1
 10
-0.107500
 20
0.290000
  0
VERTEX
  8
gg1
 10
-0.092500
 20
0.290000
  0
SEQEND
  8
gg1
  0
POLYLINE
  8
gg1
 62
1
 40
0.000000
 41
0.000000
 66
  1
  0
VERTEX
  8
gg1
 10
-0.100000
 20
0.282500
  0
VERTEX
  8
gg1
 10
-0.100000
 20
0.297500
  0
SEQEND
  8
gg1
  0
POLYLINE
  8
gg1
 62
1
 40
0.000000
 41
0.000000
 66
  1
  0
VERTEX
  8
gg1
 10
-0.076000
 20
0.305700
  0
VERTEX
  8
gg1
 10
-0.061000
 20
0.305700
  0
SEQEND
  8
gg1
  0
POLYLINE
  8
gg1
 62
1
 40
0.000000
 41
0.000000
 66
  1
  0
VERTEX
  8
gg1
 10
-0.068500
 20
0.298200
  0
VERTEX
  8
gg1
 10
-0.068500
 20
0.313200
  0
SEQEND
  8
gg1
  0
POLYLINE
  8
gg1
 62
1
 40
0.000000
 41
0.000000
 66
  1
  0
VERTEX
  8
gg1
 10
-0.076000
 20
0.274300
  0
VERTEX
  8
gg1
 10
-0.061000
 20
0.274300
  0
SEQEND
  8
gg1
  0
POLYLINE
  8
gg1
 62
1
 40
0.000000
 41
0.000000
 66
  1
  0
VERTEX
  8
gg1
 10
-0.068500
 20
0.266800
  0
VERTEX
  8
gg1
 10
-0.068500
 20
0.281800
  0
SEQEND
  8
gg1
  0
POLYLINE
  8
gg1
 62
1
 40
0.000000
 41
0.000000
 66
  1
  0
VERTEX
  8
gg1
 10
-0.139000
 20
0.274300
  0
VERTEX
  8
gg1
 10
-0.124000
 20
0.274300
  0
SEQEND
  8
gg1
  0
POLYLINE
  8
gg1
 62
1
 40
0.000000
 41
0.000000
 66
  1
  0
VERTEX
  8
gg1
 10
-0.131500
 20
0.266800
  0
VERTEX
  8
gg1
 10
-0.131500
 20
0.281800
  0
SEQEND
  8
gg1
  0
POLYLINE
  8
gg1
 62
1
 40
0.000000
 41
0.000000
 66
  1
  0
VERTEX
  8
gg1
 10
-0.348800
 20
0.352900
  0
VERTEX
  8
gg1
 10
-0.333800
 20
0.352900
  0
SEQEND
  8
gg1
  0
POLYLINE
  8
gg1
 62
1
 40
0.000000
 41
0.000000
 66
  1
  0
VERTEX
  8
gg1
 10
-0.341300
 20
0.345400
  0
VERTEX
  8
gg1
 10
-0.341300
 20
0.360400
  0
SEQEND
  8
gg1
  0
POLYLINE
  8
gg1
 62
1
 40
0.000000
 41
0.000000
 66
  1
  0
VERTEX
  8
gg1
 10
-0.348800
 20
0.297800
  0
VERTEX
  8
gg1
 10
-0.333800
 20
0.297800
  0
SEQEND
  8
gg1
  0
POLYLINE
  8
gg1
 62
1
 40
0.000000
 41
0.000000
 66
  1
  0
VERTEX
  8
gg1
 10
-0.341300
 20
0.290300
  0
VERTEX
  8
gg1
 10
-0.341300
 20
0.305300
  0
SEQEND
  8
gg1
  0
POLYLINE
  8
gg1
 62
1
 40
0.000000
 41
0.000000
 66
  1
  0
VERTEX
  8
gg1
 10
-0.386200
 20
0.297800
  0
VERTEX
  8
gg1
 10
-0.371200
 20
0.297800
  0
SEQEND
  8
gg1
  0
POLYLINE
  8
gg1
 62
1
 40
0.000000
 41
0.000000
 66
  1
  0
VERTEX
  8
gg1
 10
-0.378700
 20
0.290300
  0
VERTEX
  8
gg1
 10
-0.378700
 20
0.305300
  0
SEQEND
  8
gg1
  0
POLYLINE
  8
gg1
 62
1
 40
0.000000
 41
0.000000
 66
  1
  0
VERTEX
  8
gg1
 10
-0.386200
 20
0.352900
  0
VERTEX
  8
gg1
 10
-0.371200
 20
0.352900
  0
SEQEND
  8
gg1
  0
POLYLINE
  8
gg1
 62
1
 40
0.000000
 41
0.000000
 66
  1
  0
VERTEX
  8
gg1
 10
-0.378700
 20
0.345400
  0
VERTEX
  8
gg1
 10
-0.378700
 20
0.360400
  0
SEQEND
  8
gg1
  0
POLYLINE
  8
gg1
 62
1
 40
0.000000
 41
0.000000
 66
  1
  0
VERTEX
  8
gg1
 10
-0.367500
 20
0.325300
  0
VERTEX
  8
gg1
 10
-0.352500
 20
0.325300
  0
SEQEND
  8
gg1
  0
POLYLINE
  8
gg1
 62
1
 40
0.000000
 41
0.000000
 66
  1
  0
VERTEX
  8
gg1
 10
-0.360000
 20
0.317800
  0
VERTEX
  8
gg1
 10
-0.360000
 20
0.332800
  0
SEQEND
  8
gg1
  0
POLYLINE
  8
gg1
 62
1
 40
0.000000
 41
0.000000
 66
  1
  0
VERTEX
  8
gg1
 10
-1.277500
 20
1.835000
  0
VERTEX
  8
gg1
 10
-1.262500
 20
1.835000
  0
SEQEND
  8
gg1
  0
POLYLINE
  8
gg1
 62
1
 40
0.000000
 41
0.000000
 66
  1
  0
VERTEX
  8
gg1
 10
-1.270000
 20
1.827500
  0
VERTEX
  8
gg1
 10
-1.270000
 20
1.842500
  0
SEQEND
  8
gg1
  0
POLYLINE
  8
gg1
 62
1
 40
0.000000
 41
0.000000
 66
  1
  0
VERTEX
  8
gg1
 10
1.242500
 20
3.015000
  0
VERTEX
  8
gg1
 10
1.257500
 20
3.015000
  0
SEQEND
  8
gg1
  0
POLYLINE
  8
gg1
 62
1
 40
0.000000
 41
0.000000
 66
  1
  0
VERTEX
  8
gg1
 10
1.250000
 20
3.007500
  0
VERTEX
  8
gg1
 10
1.250000
 20
3.022500
  0
SEQEND
  8
gg1
  0
POLYLINE
  8
gg1
 62
1
 40
0.000000
 41
0.000000
 66
  1
  0
VERTEX
  8
gg1
 10
-2.010000
 20
3.260000
  0
VERTEX
  8
gg1
 10
-1.300500
 20
3.260000
  0
SEQEND
  8
gg1
  0
POLYLINE
  8
gg1
 62
1
 40
0.000000
 41
0.000000
 66
  1
  0
VERTEX
  8
gg1
 10
-2.010000
 20
0.000000
  0
VERTEX
  8
gg1
 10
-1.300500
 20
0.000000
  0
SEQEND
  8
gg1
  0
POLYLINE
  8
gg1
 62
1
 40
0.000000
 41
0.000000
 66
  1
  0
VERTEX
  8
gg1
 10
-2.000000
 20
1.814900
  0
VERTEX
  8
gg1
 10
-2.000000
 20
3.260000
  0
SEQEND
  8
gg1
  0
POLYLINE
  8
gg1
 62
1
 40
0.000000
 41
0.000000
 66
  1
  0
VERTEX
  8
gg1
 10
-2.000000
 20
0.000000
  0
VERTEX
  8
gg1
 10
-2.000000
 20
1.413100
  0
SEQEND
  8
gg1
  0
POLYLINE
  8
gg1
 62
1
 40
0.000000
 41
0.000000
 66
  1
  0
VERTEX
  8
gg1
 10
-2.020000
 20
3.200000
  0
VERTEX
  8
gg1
 10
-2.000000
 20
3.260000
  0
VERTEX
  8
gg1
 10
-1.980000
 20
3.200000
  0
SEQEND
  8
gg1
  0
POLYLINE
  8
gg1
 62
1
 40
0.000000
 41
0.000000
 66
  1
  0
VERTEX
  8
gg1
 10
-2.000000
 20
0.000000
  0
VERTEX
  8
gg1
 10
-1.980000
 20
0.060000
  0
SEQEND
  8
gg1
  0
POLYLINE
  8
gg1
 62
1
 40
0.000000
 41
0.000000
 66
  1
  0
VERTEX
  8
gg1
 10
-2.020000
 20
0.060000
  0
VERTEX
  8
gg1
 10
-2.000000
 20
0.000000
  0
SEQEND
  8
gg1
  0
POLYLINE
  8
gg1
 62
1
 40
0.000000
 41
0.000000
 66
  1
  0
VERTEX
  8
gg1
 10
1.850000
 20
-0.410000
  0
VERTEX
  8
gg1
 10
1.850000
 20
1.489500
  0
SEQEND
  8
gg1
  0
POLYLINE
  8
gg1
 62
1
 40
0.000000
 41
0.000000
 66
  1
  0
VERTEX
  8
gg1
 10
-1.850000
 20
-0.410000
  0
VERTEX
  8
gg1
 10
-1.850000
 20
1.489500
  0
SEQEND
  8
gg1
  0
POLYLINE
  8
gg1
 62
1
 40
0.000000
 41
0.000000
 66
  1
  0
VERTEX
  8
gg1
 10
0.184900
 20
-0.400000
  0
VERTEX
  8
gg1
 10
1.850000
 20
-0.400000
  0
SEQEND
  8
gg1
  0
POLYLINE
  8
gg1
 62
1
 40
0.000000
 41
0.000000
 66
  1
  0
VERTEX
  8
gg1
 10
-1.850000
 20
-0.400000
  0
VERTEX
  8
gg1
 10
-0.216900
 20
-0.400000
  0
SEQEND
  8
gg1
  0
POLYLINE
  8
gg1
 62
1
 40
0.000000
 41
0.000000
 66
  1
  0
VERTEX
  8
gg1
 10
1.790000
 20
-0.380000
  0
VERTEX
  8
gg1
 10
1.850000
 20
-0.400000
  0
SEQEND
  8
gg1
  0
POLYLINE
  8
gg1
 62
1
 40
0.000000
 41
0.000000
 66
  1
  0
VERTEX
  8
gg1
 10
1.790000
 20
-0.420000
  0
VERTEX
  8
gg1
 10
1.850000
 20
-0.400000
  0
SEQEND
  8
gg1
  0
POLYLINE
  8
gg1
 62
1
 40
0.000000
 41
0.000000
 66
  1
  0
VERTEX
  8
gg1
 10
-1.850000
 20
-0.400000
  0
VERTEX
  8
gg1
 10
-1.790000
 20
-0.420000
  0
SEQEND
  8
gg1
  0
POLYLINE
  8
gg1
 62
1
 40
0.000000
 41
0.000000
 66
  1
  0
VERTEX
  8
gg1
 10
-1.850000
 20
-0.400000
  0
VERTEX
  8
gg1
 10
-1.790000
 20
-0.380000
  0
SEQEND
  8
gg1
  0
POLYLINE
  8
gg1
 62
1
 40
0.000000
 41
0.000000
 66
  1
  0
VERTEX
  8
gg1
 10
-2.014000
 20
1.429100
  0
VERTEX
  8
gg1
 10
-2.024000
 20
1.439100
  0
VERTEX
  8
gg1
 10
-2.024000
 20
1.459100
  0
VERTEX
  8
gg1
 10
-2.014000
 20
1.469000
  0
VERTEX
  8
gg1
 10
-2.004000
 20
1.469000
  0
VERTEX
  8
gg1
 10
-1.994000
 20
1.459100
  0
VERTEX
  8
gg1
 10
-1.994000
 20
1.449100
  0
VERTEX
  8
gg1
 10
-1.994000
 20
1.459100
  0
VERTEX
  8
gg1
 10
-1.984000
 20
1.469000
  0
VERTEX
  8
gg1
 10
-1.974000
 20
1.469000
  0
VERTEX
  8
gg1
 10
-1.964000
 20
1.459100
  0
VERTEX
  8
gg1
 10
-1.964000
 20
1.439100
  0
VERTEX
  8
gg1
 10
-1.974000
 20
1.429100
  0
SEQEND
  8
gg1
  0
POLYLINE
  8
gg1
 62
1
 40
0.000000
 41
0.000000
 66
  1
  0
VERTEX
  8
gg1
 10
-1.964000
 20
1.529000
  0
VERTEX
  8
gg1
 10
-1.964000
 20
1.489000
  0
VERTEX
  8
gg1
 10
-2.004000
 20
1.529000
  0
VERTEX
  8
gg1
 10
-2.014000
 20
1.529000
  0
VERTEX
  8
gg1
 10
-2.024000
 20
1.519000
  0
VERTEX
  8
gg1
 10
-2.024000
 20
1.499000
  0
VERTEX
  8
gg1
 10
-2.014000
 20
1.489000
  0
SEQEND
  8
gg1
  0
POLYLINE
  8
gg1
 62
1
 40
0.000000
 41
0.000000
 66
  1
  0
VERTEX
  8
gg1
 10
-2.024000
 20
1.589000
  0
VERTEX
  8
gg1
 10
-2.014000
 20
1.569000
  0
VERTEX
  8
gg1
 10
-1.994000
 20
1.549000
  0
VERTEX
  8
gg1
 10
-1.974000
 20
1.549000
  0
VERTEX
  8
gg1
 10
-1.964000
 20
1.559000
  0
VERTEX
  8
gg1
 10
-1.964000
 20
1.579000
  0
VERTEX
  8
gg1
 10
-1.974000
 20
1.589000
  0
VERTEX
  8
gg1
 10
-1.984000
 20
1.589000
  0
VERTEX
  8
gg1
 10
-1.994000
 20
1.579000
  0
VERTEX
  8
gg1
 10
-1.994000
 20
1.549000
  0
SEQEND
  8
gg1
  0
POLYLINE
  8
gg1
 62
1
 40
0.000000
 41
0.000000
 66
  1
  0
VERTEX
  8
gg1
 10
-2.014000
 20
1.609000
  0
VERTEX
  8
gg1
 10
-2.024000
 20
1.619000
  0
VERTEX
  8
gg1
 10
-2.024000
 20
1.639000
  0
VERTEX
  8
gg1
 10
-2.014000
 20
1.649000
  0
VERTEX
  8
gg1
 10
-1.974000
 20
1.649000
  0
VERTEX
  8
gg1
 10
-1.964000
 20
1.639000
  0
VERTEX
  8
gg1
 10
-1.964000
 20
1.619000
  0
VERTEX
  8
gg1
 10
-1.974000
 20
1.609000
  0
VERTEX
  8
gg1
 10
-2.014000
 20
1.609000
  0
SEQEND
  8
gg1
  0
POLYLINE
  8
gg1
 62
1
 40
0.000000
 41
0.000000
 66
  1
  0
VERTEX
  8
gg1
 10
-1.964000
 20
1.669000
  0
VERTEX
  8
gg1
 10
-2.004000
 20
1.669000
  0
VERTEX
  8
gg1
 10
-2.004000
 20
1.679000
  0
VERTEX
  8
gg1
 10
-1.994000
 20
1.689000
  0
VERTEX
  8
gg1
 10
-1.964000
 20
1.689000
  0
VERTEX
  8
gg1
 10
-1.994000
 20
1.689000
  0
VERTEX
  8
gg1
 10
-2.004000
 20
1.699000
  0
VERTEX
  8
gg1
 10
-1.994000
 20
1.709000
  0
VERTEX
  8
gg1
 10
-1.964000
 20
1.709000
  0
SEQEND
  8
gg1
  0
POLYLINE
  8
gg1
 62
1
 40
0.000000
 41
0.000000
 66
  1
  0
VERTEX
  8
gg1
 10
-1.964000
 20
1.729000
  0
VERTEX
  8
gg1
 10
-1.964000
 20
1.749000
  0
VERTEX
  8
gg1
 10
-1.964000
 20
1.739000
  0
VERTEX
  8
gg1
 10
-2.004000
 20
1.739000
  0
VERTEX
  8
gg1
 10
-2.004000
 20
1.729000
  0
SEQEND
  8
gg1
  0
POLYLINE
  8
gg1
 62
1
 40
0.000000
 41
0.000000
 66
  1
  0
VERTEX
  8
gg1
 10
-1.964000
 20
1.778900
  0
VERTEX
  8
gg1
 10
-1.964000
 20
1.798900
  0
VERTEX
  8
gg1
 10
-1.964000
 20
1.788900
  0
VERTEX
  8
gg1
 10
-2.024000
 20
1.788900
  0
VERTEX
  8
gg1
 10
-2.024000
 20
1.778900
  0
SEQEND
  8
gg1
  0
POLYLINE
  8
gg1
 62
1
 40
0.000000
 41
0.000000
 66
  1
  0
VERTEX
  8
gg1
 10
-0.200900
 20
-0.386000
  0
VERTEX
  8
gg1
 10
-0.190900
 20
-0.376000
  0
VERTEX
  8
gg1
 10
-0.170900
 20
-0.376000
  0
VERTEX
  8
gg1
 10
-0.161000
 20
-0.386000
  0
VERTEX
  8
gg1
 10
-0.161000
 20
-0.396000
  0
VERTEX
  8
gg1
 10
-0.170900
 20
-0.406000
  0
VERTEX
  8
gg1
 10
-0.180900
 20
-0.406000
  0
VERTEX
  8
gg1
 10
-0.170900
 20
-0.406000
  0
VERTEX
  8
gg1
 10
-0.161000
 20
-0.416000
  0
VERTEX
  8
gg1
 10
-0.161000
 20
-0.426000
  0
VERTEX
  8
gg1
 10
-0.170900
 20
-0.436000
  0
VERTEX
  8
gg1
 10
-0.190900
 20
-0.436000
  0
VERTEX
  8
gg1
 10
-0.200900
 20
-0.426000
  0
SEQEND
  8
gg1
  0
POLYLINE
  8
gg1
 62
1
 40
0.000000
 41
0.000000
 66
  1
  0
VERTEX
  8
gg1
 10
-0.141000
 20
-0.376000
  0
VERTEX
  8
gg1
 10
-0.101000
 20
-0.376000
  0
VERTEX
  8
gg1
 10
-0.101000
 20
-0.386000
  0
VERTEX
  8
gg1
 10
-0.141000
 20
-0.426000
  0
VERTEX
  8
gg1
 10
-0.141000
 20
-0.436000
  0
SEQEND
  8
gg1
  0
POLYLINE
  8
gg1
 62
1
 40
0.000000
 41
0.000000
 66
  1
  0
VERTEX
  8
gg1
 10
-0.081000
 20
-0.386000
  0
VERTEX
  8
gg1
 10
-0.071000
 20
-0.376000
  0
VERTEX
  8
gg1
 10
-0.051000
 20
-0.376000
  0
VERTEX
  8
gg1
 10
-0.041000
 20
-0.386000
  0
VERTEX
  8
gg1
 10
-0.041000
 20
-0.426000
  0
VERTEX
  8
gg1
 10
-0.051000
 20
-0.436000
  0
VERTEX
  8
gg1
 10
-0.071000
 20
-0.436000
  0
VERTEX
  8
gg1
 10
-0.081000
 20
-0.426000
  0
VERTEX
  8
gg1
 10
-0.081000
 20
-0.386000
  0
SEQEND
  8
gg1
  0
POLYLINE
  8
gg1
 62
1
 40
0.000000
 41
0.000000
 66
  1
  0
VERTEX
  8
gg1
 10
-0.021000
 20
-0.386000
  0
VERTEX
  8
gg1
 10
-0.011000
 20
-0.376000
  0
VERTEX
  8
gg1
 10
0.009000
 20
-0.376000
  0
VERTEX
  8
gg1
 10
0.019000
 20
-0.386000
  0
VERTEX
  8
gg1
 10
0.019000
 20
-0.426000
  0
VERTEX
  8
gg1
 10
0.009000
 20
-0.436000
  0
VERTEX
  8
gg1
 10
-0.011000
 20
-0.436000
  0
VERTEX
  8
gg1
 10
-0.021000
 20
-0.426000
  0
VERTEX
  8
gg1
 10
-0.021000
 20
-0.386000
  0
SEQEND
  8
gg1
  0
POLYLINE
  8
gg1
 62
1
 40
0.000000
 41
0.000000
 66
  1
  0
VERTEX
  8
gg1
 10
0.039000
 20
-0.436000
  0
VERTEX
  8
gg1
 10
0.039000
 20
-0.396000
  0
VERTEX
  8
gg1
 10
0.049000
 20
-0.396000
  0
VERTEX
  8
gg1
 10
0.059000
 20
-0.406000
  0
VERTEX
  8
gg1
 10
0.059000
 20
-0.436000
  0
VERTEX
  8
gg1
 10
0.059000
 20
-0.406000
  0
VERTEX
  8
gg1
 10
0.069000
 20
-0.396000
  0
VERTEX
  8
gg1
 10
0.079000
 20
-0.406000
  0
VERTEX
  8
gg1
 10
0.079000
 20
-0.436000
  0
SEQEND
  8
gg1
  0
POLYLINE
  8
gg1
 62
1
 40
0.000000
 41
0.000000
 66
  1
  0
VERTEX
  8
gg1
 10
0.099000
 20
-0.436000
  0
VERTEX
  8
gg1
 10
0.119000
 20
-0.436000
  0
VERTEX
  8
gg1
 10
0.109000
 20
-0.436000
  0
VERTEX
  8
gg1
 10
0.109000
 20
-0.396000
  0
VERTEX
  8
gg1
 10
0.099000
 20
-0.396000
  0
SEQEND
  8
gg1
  0
POLYLINE
  8
gg1
 62
1
 40
0.000000
 41
0.000000
 66
  1
  0
VERTEX
  8
gg1
 10
0.148900
 20
-0.436000
  0
VERTEX
  8
gg1
 10
0.168900
 20
-0.436000
  0
VERTEX
  8
gg1
 10
0.158900
 20
-0.436000
  0
VERTEX
  8
gg1
 10
0.158900
 20
-0.376000
  0
VERTEX
  8
gg1
 10
0.148900
 20
-0.376000
  0
SEQEND
  8
gg1
  0
ENDSEC
  0
EOF
